  0
SECTION
  2
HEADER
  9
$ACADVER
  1
AC1018
  9
$ACADMAINTVER
 70
     0
  9
$DWGCODEPAGE
  3
ANSI_1252
  9
$INSBASE
 10
0.0
 20
0.0
 30
0.0
  9
$EXTMIN
 10
-0.672363239575
 20
-5.864050485185
 30
0.0
  9
$EXTMAX
 10
26.480893755837
 20
5.480249514815
 30
0.0
  9
$LIMMIN
 10
0.0
 20
0.0
  9
$LIMMAX
 10
420.0
 20
297.0
  9
$ORTHOMODE
 70
     0
  9
$REGENMODE
 70
     1
  9
$FILLMODE
 70
     1
  9
$QTEXTMODE
 70
     0
  9
$MIRRTEXT
 70
     1
  9
$LTSCALE
 40
1.0
  9
$ATTMODE
 70
     1
  9
$TEXTSIZE
 40
2.5
  9
$TRACEWID
 40
1.0
  9
$TEXTSTYLE
  7
Standard
  9
$CLAYER
  8
0
  9
$CELTYPE
  6
ByLayer
  9
$CECOLOR
 62
   256
  9
$CELTSCALE
 40
1.0
  9
$DISPSILH
 70
     0
  9
$DIMSCALE
 40
1.0
  9
$DIMASZ
 40
2.5
  9
$DIMEXO
 40
0.625
  9
$DIMDLI
 40
3.75
  9
$DIMRND
 40
0.0
  9
$DIMDLE
 40
0.0
  9
$DIMEXE
 40
1.25
  9
$DIMTP
 40
0.0
  9
$DIMTM
 40
0.0
  9
$DIMTXT
 40
2.5
  9
$DIMCEN
 40
2.5
  9
$DIMTSZ
 40
0.0
  9
$DIMTOL
 70
     0
  9
$DIMLIM
 70
     0
  9
$DIMTIH
 70
     0
  9
$DIMTOH
 70
     0
  9
$DIMSE1
 70
     0
  9
$DIMSE2
 70
     0
  9
$DIMTAD
 70
     1
  9
$DIMZIN
 70
     8
  9
$DIMBLK
  1

  9
$DIMASO
 70
     1
  9
$DIMSHO
 70
     1
  9
$DIMPOST
  1

  9
$DIMAPOST
  1

  9
$DIMALT
 70
     0
  9
$DIMALTD
 70
     3
  9
$DIMALTF
 40
0.03937007874
  9
$DIMLFAC
 40
1.0
  9
$DIMTOFL
 70
     1
  9
$DIMTVP
 40
0.0
  9
$DIMTIX
 70
     0
  9
$DIMSOXD
 70
     0
  9
$DIMSAH
 70
     0
  9
$DIMBLK1
  1

  9
$DIMBLK2
  1

  9
$DIMSTYLE
  2
ISO-25
  9
$DIMCLRD
 70
     0
  9
$DIMCLRE
 70
     0
  9
$DIMCLRT
 70
     0
  9
$DIMTFAC
 40
1.0
  9
$DIMGAP
 40
0.625
  9
$DIMJUST
 70
     0
  9
$DIMSD1
 70
     0
  9
$DIMSD2
 70
     0
  9
$DIMTOLJ
 70
     0
  9
$DIMTZIN
 70
     8
  9
$DIMALTZ
 70
     0
  9
$DIMALTTZ
 70
     0
  9
$DIMUPT
 70
     0
  9
$DIMDEC
 70
     2
  9
$DIMTDEC
 70
     2
  9
$DIMALTU
 70
     2
  9
$DIMALTTD
 70
     3
  9
$DIMTXSTY
  7
Standard
  9
$DIMAUNIT
 70
     0
  9
$DIMADEC
 70
     0
  9
$DIMALTRND
 40
0.0
  9
$DIMAZIN
 70
     0
  9
$DIMDSEP
 70
    44
  9
$DIMATFIT
 70
     3
  9
$DIMFRAC
 70
     0
  9
$DIMLDRBLK
  1

  9
$DIMLUNIT
 70
     2
  9
$DIMLWD
 70
    -2
  9
$DIMLWE
 70
    -2
  9
$DIMTMOVE
 70
     0
  9
$LUNITS
 70
     2
  9
$LUPREC
 70
     4
  9
$SKETCHINC
 40
1.0
  9
$FILLETRAD
 40
10.0
  9
$AUNITS
 70
     0
  9
$AUPREC
 70
     0
  9
$MENU
  1
.
  9
$ELEVATION
 40
0.0
  9
$PELEVATION
 40
0.0
  9
$THICKNESS
 40
0.0
  9
$LIMCHECK
 70
     0
  9
$CHAMFERA
 40
0.0
  9
$CHAMFERB
 40
0.0
  9
$CHAMFERC
 40
0.0
  9
$CHAMFERD
 40
0.0
  9
$SKPOLY
 70
     0
  9
$TDCREATE
 40
2457081.386585417
  9
$TDUCREATE
 40
2457081.678252083
  9
$TDUPDATE
 40
2457081.386607083
  9
$TDUUPDATE
 40
2457081.67827375
  9
$TDINDWG
 40
0.0000000116
  9
$TDUSRTIMER
 40
0.0000000116
  9
$USRTIMER
 70
     1
  9
$ANGBASE
 50
0.0
  9
$ANGDIR
 70
     0
  9
$PDMODE
 70
     2
  9
$PDSIZE
 40
1.0
  9
$PLINEWID
 40
0.0
  9
$SPLFRAME
 70
     0
  9
$SPLINETYPE
 70
     6
  9
$SPLINESEGS
 70
     8
  9
$HANDSEED
  5
364
  9
$SURFTAB1
 70
     6
  9
$SURFTAB2
 70
     6
  9
$SURFTYPE
 70
     6
  9
$SURFU
 70
     6
  9
$SURFV
 70
     6
  9
$UCSBASE
  2

  9
$UCSNAME
  2

  9
$UCSORG
 10
0.0
 20
0.0
 30
0.0
  9
$UCSXDIR
 10
1.0
 20
0.0
 30
0.0
  9
$UCSYDIR
 10
0.0
 20
1.0
 30
0.0
  9
$UCSORTHOREF
  2

  9
$UCSORTHOVIEW
 70
     0
  9
$UCSORGTOP
 10
0.0
 20
0.0
 30
0.0
  9
$UCSORGBOTTOM
 10
0.0
 20
0.0
 30
0.0
  9
$UCSORGLEFT
 10
0.0
 20
0.0
 30
0.0
  9
$UCSORGRIGHT
 10
0.0
 20
0.0
 30
0.0
  9
$UCSORGFRONT
 10
0.0
 20
0.0
 30
0.0
  9
$UCSORGBACK
 10
0.0
 20
0.0
 30
0.0
  9
$PUCSBASE
  2

  9
$PUCSNAME
  2

  9
$PUCSORG
 10
0.0
 20
0.0
 30
0.0
  9
$PUCSXDIR
 10
1.0
 20
0.0
 30
0.0
  9
$PUCSYDIR
 10
0.0
 20
1.0
 30
0.0
  9
$PUCSORTHOREF
  2

  9
$PUCSORTHOVIEW
 70
     0
  9
$PUCSORGTOP
 10
0.0
 20
0.0
 30
0.0
  9
$PUCSORGBOTTOM
 10
0.0
 20
0.0
 30
0.0
  9
$PUCSORGLEFT
 10
0.0
 20
0.0
 30
0.0
  9
$PUCSORGRIGHT
 10
0.0
 20
0.0
 30
0.0
  9
$PUCSORGFRONT
 10
0.0
 20
0.0
 30
0.0
  9
$PUCSORGBACK
 10
0.0
 20
0.0
 30
0.0
  9
$USERI1
 70
     0
  9
$USERI2
 70
     0
  9
$USERI3
 70
     0
  9
$USERI4
 70
     0
  9
$USERI5
 70
     0
  9
$USERR1
 40
0.0
  9
$USERR2
 40
0.0
  9
$USERR3
 40
0.0
  9
$USERR4
 40
0.0
  9
$USERR5
 40
0.0
  9
$WORLDVIEW
 70
     1
  9
$SHADEDGE
 70
     3
  9
$SHADEDIF
 70
    70
  9
$TILEMODE
 70
     1
  9
$MAXACTVP
 70
    64
  9
$PINSBASE
 10
0.0
 20
0.0
 30
0.0
  9
$PLIMCHECK
 70
     0
  9
$PEXTMIN
 10
1.000000000000E+20
 20
1.000000000000E+20
 30
1.000000000000E+20
  9
$PEXTMAX
 10
-1.000000000000E+20
 20
-1.000000000000E+20
 30
-1.000000000000E+20
  9
$PLIMMIN
 10
0.0
 20
0.0
  9
$PLIMMAX
 10
420.0
 20
297.0
  9
$UNITMODE
 70
     0
  9
$VISRETAIN
 70
     1
  9
$PLINEGEN
 70
     0
  9
$PSLTSCALE
 70
     1
  9
$TREEDEPTH
 70
  3020
  9
$CMLSTYLE
  2
Standard
  9
$CMLJUST
 70
     0
  9
$CMLSCALE
 40
20.0
  9
$PROXYGRAPHICS
 70
     1
  9
$MEASUREMENT
 70
     1
  9
$CELWEIGHT
370
    -1
  9
$ENDCAPS
280
     0
  9
$JOINSTYLE
280
     0
  9
$LWDISPLAY
290
     0
  9
$INSUNITS
 70
     4
  9
$HYPERLINKBASE
  1

  9
$STYLESHEET
  1

  9
$XEDIT
290
     1
  9
$CEPSNTYPE
380
     0
  9
$PSTYLEMODE
290
     1
  9
$FINGERPRINTGUID
  2
{128B203E-9CBA-4CB9-B780-9FEEB486C4D3}
  9
$VERSIONGUID
  2
{FAEB1C32-E019-11D5-929B-00C0DF256EC4}
  9
$EXTNAMES
290
     1
  9
$PSVPSCALE
 40
0.0
  9
$OLESTARTUP
290
     0
  9
$SORTENTS
280
   127
  9
$INDEXCTL
280
     0
  9
$HIDETEXT
280
     1
  9
$XCLIPFRAME
290
     0
  9
$HALOGAP
280
     0
  9
$OBSCOLOR
 70
   257
  9
$OBSLTYPE
280
     0
  9
$INTERSECTIONDISPLAY
280
     0
  9
$INTERSECTIONCOLOR
 70
   257
  9
$DIMASSOC
280
     2
  9
$PROJECTNAME
  1

  0
ENDSEC
  0
SECTION
  2
CLASSES
  0
CLASS
  1
ACDBDICTIONARYWDFLT
  2
AcDbDictionaryWithDefault
  3
ObjectDBX Classes
 90
        0
 91
        4
280
     0
281
     0
  0
CLASS
  1
VISUALSTYLE
  2
AcDbVisualStyle
  3
ObjectDBX Classes
 90
     4095
 91
        4
280
     0
281
     0
  0
CLASS
  1
MATERIAL
  2
AcDbMaterial
  3
ObjectDBX Classes
 90
     1153
 91
        4
280
     0
281
     0
  0
CLASS
  1
SCALE
  2
AcDbScale
  3
ObjectDBX Classes
 90
     1153
 91
        4
280
     0
281
     0
  0
CLASS
  1
SUN
  2
AcDbSun
  3
SCENEOE
 90
     1153
 91
        4
280
     0
281
     0
  0
CLASS
  1
WIPEOUTVARIABLES
  2
AcDbWipeoutVariables
  3
WipeOut|AutoCAD Express Tool|expresstools@autodesk.com
 90
        0
 91
        4
280
     0
281
     0
  0
CLASS
  1
WIPEOUT
  2
AcDbWipeout
  3
WipeOut|AutoCAD Express Tool|expresstools@autodesk.com
 90
      127
 91
        4
280
     0
281
     1
  0
CLASS
  1
DICTIONARYVAR
  2
AcDbDictionaryVar
  3
ObjectDBX Classes
 90
        0
 91
        4
280
     0
281
     0
  0
ENDSEC
  0
SECTION
  2
TABLES
  0
TABLE
  2
VPORT
  5
8
102
{ACAD_XDICTIONARY
360
325
102
}
330
0
100
AcDbSymbolTable
 70
     1
  0
VPORT
  5
29
330
8
100
AcDbSymbolTableRecord
100
AcDbViewportTableRecord
  2
*Active
 70
     0
 10
0.0
 20
0.0
 11
1.0
 21
1.0
 12
12.904265258131
 22
-0.191900485185
 13
0.0
 23
0.0
 14
10.0
 24
10.0
 15
10.0
 25
10.0
 16
0.0
 26
0.0
 36
1.0
 17
0.0
 27
0.0
 37
0.0
 40
11.3443
 41
2.393559496435
 42
50.0
 43
0.0
 44
0.0
 50
0.0
 51
0.0
 71
     0
 72
   100
 73
     1
 74
     3
 75
     0
 76
     0
 77
     0
 78
     0
281
     0
 65
     1
110
0.0
120
0.0
130
0.0
111
1.0
121
0.0
131
0.0
112
0.0
122
1.0
132
0.0
 79
     0
146
0.0
  0
ENDTAB
  0
TABLE
  2
LTYPE
  5
5
330
0
100
AcDbSymbolTable
 70
     2
  0
LTYPE
  5
14
330
5
100
AcDbSymbolTableRecord
100
AcDbLinetypeTableRecord
  2
ByBlock
 70
     0
  3

 72
    65
 73
     0
 40
0.0
  0
LTYPE
  5
15
330
5
100
AcDbSymbolTableRecord
100
AcDbLinetypeTableRecord
  2
ByLayer
 70
     0
  3

 72
    65
 73
     0
 40
0.0
  0
LTYPE
  5
16
330
5
100
AcDbSymbolTableRecord
100
AcDbLinetypeTableRecord
  2
Continuous
 70
     0
  3
Solid line
 72
    65
 73
     0
 40
0.0
  0
LTYPE
  5
6B
330
5
100
AcDbSymbolTableRecord
100
AcDbLinetypeTableRecord
  2
AUSGEZOGEN
 70
     0
  3

 72
    65
 73
     0
 40
0.0
  0
ENDTAB
  0
TABLE
  2
LAYER
  5
2
330
0
100
AcDbSymbolTable
 70
   257
  0
LAYER
  5
10
330
2
100
AcDbSymbolTableRecord
100
AcDbLayerTableRecord
  2
0
 70
     0
 62
     7
  6
Continuous
370
    -3
390
F
  0
LAYER
  5
70
330
2
100
AcDbSymbolTableRecord
100
AcDbLayerTableRecord
  2
PROFILE
 70
     0
 62
     7
  6
Continuous
370
    -3
390
F
  0
LAYER
  5
71
330
2
100
AcDbSymbolTableRecord
100
AcDbLayerTableRecord
  2
TEXT
 70
     0
 62
     7
  6
Continuous
370
    -3
390
F
  0
LAYER
  5
72
330
2
100
AcDbSymbolTableRecord
100
AcDbLayerTableRecord
  2
Layer2
 70
     0
 62
     7
  6
Continuous
370
    -3
390
F
  0
LAYER
  5
73
330
2
100
AcDbSymbolTableRecord
100
AcDbLayerTableRecord
  2
Layer3
 70
     0
 62
     7
  6
Continuous
370
    -3
390
F
  0
LAYER
  5
74
330
2
100
AcDbSymbolTableRecord
100
AcDbLayerTableRecord
  2
Layer4
 70
     0
 62
     7
  6
Continuous
370
    -3
390
F
  0
LAYER
  5
75
330
2
100
AcDbSymbolTableRecord
100
AcDbLayerTableRecord
  2
Layer5
 70
     0
 62
     7
  6
Continuous
370
    -3
390
F
  0
LAYER
  5
76
330
2
100
AcDbSymbolTableRecord
100
AcDbLayerTableRecord
  2
Layer6
 70
     0
 62
     7
  6
Continuous
370
    -3
390
F
  0
LAYER
  5
77
330
2
100
AcDbSymbolTableRecord
100
AcDbLayerTableRecord
  2
Layer7
 70
     0
 62
     7
  6
Continuous
370
    -3
390
F
  0
LAYER
  5
78
330
2
100
AcDbSymbolTableRecord
100
AcDbLayerTableRecord
  2
Layer8
 70
     0
 62
     7
  6
Continuous
370
    -3
390
F
  0
LAYER
  5
79
330
2
100
AcDbSymbolTableRecord
100
AcDbLayerTableRecord
  2
Layer9
 70
     0
 62
     7
  6
Continuous
370
    -3
390
F
  0
LAYER
  5
7A
330
2
100
AcDbSymbolTableRecord
100
AcDbLayerTableRecord
  2
Layer10
 70
     0
 62
     7
  6
Continuous
370
    -3
390
F
  0
LAYER
  5
7B
330
2
100
AcDbSymbolTableRecord
100
AcDbLayerTableRecord
  2
Layer11
 70
     0
 62
     7
  6
Continuous
370
    -3
390
F
  0
LAYER
  5
7C
330
2
100
AcDbSymbolTableRecord
100
AcDbLayerTableRecord
  2
Layer12
 70
     0
 62
     7
  6
Continuous
370
    -3
390
F
  0
LAYER
  5
7D
330
2
100
AcDbSymbolTableRecord
100
AcDbLayerTableRecord
  2
Layer13
 70
     0
 62
     7
  6
Continuous
370
    -3
390
F
  0
LAYER
  5
7E
330
2
100
AcDbSymbolTableRecord
100
AcDbLayerTableRecord
  2
Layer14
 70
     0
 62
     7
  6
Continuous
370
    -3
390
F
  0
LAYER
  5
7F
330
2
100
AcDbSymbolTableRecord
100
AcDbLayerTableRecord
  2
Layer15
 70
     0
 62
     7
  6
Continuous
370
    -3
390
F
  0
LAYER
  5
80
330
2
100
AcDbSymbolTableRecord
100
AcDbLayerTableRecord
  2
Layer16
 70
     0
 62
     7
  6
Continuous
370
    -3
390
F
  0
LAYER
  5
81
330
2
100
AcDbSymbolTableRecord
100
AcDbLayerTableRecord
  2
Layer17
 70
     0
 62
     7
  6
Continuous
370
    -3
390
F
  0
LAYER
  5
82
330
2
100
AcDbSymbolTableRecord
100
AcDbLayerTableRecord
  2
Layer18
 70
     0
 62
     7
  6
Continuous
370
    -3
390
F
  0
LAYER
  5
83
330
2
100
AcDbSymbolTableRecord
100
AcDbLayerTableRecord
  2
Layer19
 70
     0
 62
     7
  6
Continuous
370
    -3
390
F
  0
LAYER
  5
84
330
2
100
AcDbSymbolTableRecord
100
AcDbLayerTableRecord
  2
Layer20
 70
     0
 62
     7
  6
Continuous
370
    -3
390
F
  0
LAYER
  5
85
330
2
100
AcDbSymbolTableRecord
100
AcDbLayerTableRecord
  2
Layer21
 70
     0
 62
     7
  6
Continuous
370
    -3
390
F
  0
LAYER
  5
86
330
2
100
AcDbSymbolTableRecord
100
AcDbLayerTableRecord
  2
Layer22
 70
     0
 62
     7
  6
Continuous
370
    -3
390
F
  0
LAYER
  5
87
330
2
100
AcDbSymbolTableRecord
100
AcDbLayerTableRecord
  2
Layer23
 70
     0
 62
     7
  6
Continuous
370
    -3
390
F
  0
LAYER
  5
88
330
2
100
AcDbSymbolTableRecord
100
AcDbLayerTableRecord
  2
Layer24
 70
     0
 62
     7
  6
Continuous
370
    -3
390
F
  0
LAYER
  5
89
330
2
100
AcDbSymbolTableRecord
100
AcDbLayerTableRecord
  2
Layer25
 70
     0
 62
     7
  6
Continuous
370
    -3
390
F
  0
LAYER
  5
8A
330
2
100
AcDbSymbolTableRecord
100
AcDbLayerTableRecord
  2
Layer26
 70
     0
 62
     7
  6
Continuous
370
    -3
390
F
  0
LAYER
  5
8B
330
2
100
AcDbSymbolTableRecord
100
AcDbLayerTableRecord
  2
Layer27
 70
     0
 62
     7
  6
Continuous
370
    -3
390
F
  0
LAYER
  5
8C
330
2
100
AcDbSymbolTableRecord
100
AcDbLayerTableRecord
  2
Layer28
 70
     0
 62
     7
  6
Continuous
370
    -3
390
F
  0
LAYER
  5
8D
330
2
100
AcDbSymbolTableRecord
100
AcDbLayerTableRecord
  2
Layer29
 70
     0
 62
     7
  6
Continuous
370
    -3
390
F
  0
LAYER
  5
8E
330
2
100
AcDbSymbolTableRecord
100
AcDbLayerTableRecord
  2
Layer30
 70
     0
 62
     7
  6
Continuous
370
    -3
390
F
  0
LAYER
  5
8F
330
2
100
AcDbSymbolTableRecord
100
AcDbLayerTableRecord
  2
Layer31
 70
     0
 62
     7
  6
Continuous
370
    -3
390
F
  0
LAYER
  5
90
330
2
100
AcDbSymbolTableRecord
100
AcDbLayerTableRecord
  2
Layer32
 70
     0
 62
     7
  6
Continuous
370
    -3
390
F
  0
LAYER
  5
91
330
2
100
AcDbSymbolTableRecord
100
AcDbLayerTableRecord
  2
Layer33
 70
     0
 62
     7
  6
Continuous
370
    -3
390
F
  0
LAYER
  5
92
330
2
100
AcDbSymbolTableRecord
100
AcDbLayerTableRecord
  2
Layer34
 70
     0
 62
     7
  6
Continuous
370
    -3
390
F
  0
LAYER
  5
93
330
2
100
AcDbSymbolTableRecord
100
AcDbLayerTableRecord
  2
Layer35
 70
     0
 62
     7
  6
Continuous
370
    -3
390
F
  0
LAYER
  5
94
330
2
100
AcDbSymbolTableRecord
100
AcDbLayerTableRecord
  2
Layer36
 70
     0
 62
     7
  6
Continuous
370
    -3
390
F
  0
LAYER
  5
95
330
2
100
AcDbSymbolTableRecord
100
AcDbLayerTableRecord
  2
Layer37
 70
     0
 62
     7
  6
Continuous
370
    -3
390
F
  0
LAYER
  5
96
330
2
100
AcDbSymbolTableRecord
100
AcDbLayerTableRecord
  2
Layer38
 70
     0
 62
     7
  6
Continuous
370
    -3
390
F
  0
LAYER
  5
97
330
2
100
AcDbSymbolTableRecord
100
AcDbLayerTableRecord
  2
Layer39
 70
     0
 62
     7
  6
Continuous
370
    -3
390
F
  0
LAYER
  5
98
330
2
100
AcDbSymbolTableRecord
100
AcDbLayerTableRecord
  2
Layer40
 70
     0
 62
     7
  6
Continuous
370
    -3
390
F
  0
LAYER
  5
99
330
2
100
AcDbSymbolTableRecord
100
AcDbLayerTableRecord
  2
Layer41
 70
     0
 62
     7
  6
Continuous
370
    -3
390
F
  0
LAYER
  5
9A
330
2
100
AcDbSymbolTableRecord
100
AcDbLayerTableRecord
  2
Layer42
 70
     0
 62
     7
  6
Continuous
370
    -3
390
F
  0
LAYER
  5
9B
330
2
100
AcDbSymbolTableRecord
100
AcDbLayerTableRecord
  2
Layer43
 70
     0
 62
     7
  6
Continuous
370
    -3
390
F
  0
LAYER
  5
9C
330
2
100
AcDbSymbolTableRecord
100
AcDbLayerTableRecord
  2
Layer44
 70
     0
 62
     7
  6
Continuous
370
    -3
390
F
  0
LAYER
  5
9D
330
2
100
AcDbSymbolTableRecord
100
AcDbLayerTableRecord
  2
Layer45
 70
     0
 62
     7
  6
Continuous
370
    -3
390
F
  0
LAYER
  5
9E
330
2
100
AcDbSymbolTableRecord
100
AcDbLayerTableRecord
  2
Layer46
 70
     0
 62
     7
  6
Continuous
370
    -3
390
F
  0
LAYER
  5
9F
330
2
100
AcDbSymbolTableRecord
100
AcDbLayerTableRecord
  2
Layer47
 70
     0
 62
     7
  6
Continuous
370
    -3
390
F
  0
LAYER
  5
A0
330
2
100
AcDbSymbolTableRecord
100
AcDbLayerTableRecord
  2
Layer48
 70
     0
 62
     7
  6
Continuous
370
    -3
390
F
  0
LAYER
  5
A1
330
2
100
AcDbSymbolTableRecord
100
AcDbLayerTableRecord
  2
Layer49
 70
     0
 62
     7
  6
Continuous
370
    -3
390
F
  0
LAYER
  5
A2
330
2
100
AcDbSymbolTableRecord
100
AcDbLayerTableRecord
  2
Layer50
 70
     0
 62
     7
  6
Continuous
370
    -3
390
F
  0
LAYER
  5
A3
330
2
100
AcDbSymbolTableRecord
100
AcDbLayerTableRecord
  2
Layer51
 70
     0
 62
     7
  6
Continuous
370
    -3
390
F
  0
LAYER
  5
A4
330
2
100
AcDbSymbolTableRecord
100
AcDbLayerTableRecord
  2
Layer52
 70
     0
 62
     7
  6
Continuous
370
    -3
390
F
  0
LAYER
  5
A5
330
2
100
AcDbSymbolTableRecord
100
AcDbLayerTableRecord
  2
Layer53
 70
     0
 62
     7
  6
Continuous
370
    -3
390
F
  0
LAYER
  5
A6
330
2
100
AcDbSymbolTableRecord
100
AcDbLayerTableRecord
  2
Layer54
 70
     0
 62
     7
  6
Continuous
370
    -3
390
F
  0
LAYER
  5
A7
330
2
100
AcDbSymbolTableRecord
100
AcDbLayerTableRecord
  2
Layer55
 70
     0
 62
     7
  6
Continuous
370
    -3
390
F
  0
LAYER
  5
A8
330
2
100
AcDbSymbolTableRecord
100
AcDbLayerTableRecord
  2
Layer56
 70
     0
 62
     7
  6
Continuous
370
    -3
390
F
  0
LAYER
  5
A9
330
2
100
AcDbSymbolTableRecord
100
AcDbLayerTableRecord
  2
Layer57
 70
     0
 62
     7
  6
Continuous
370
    -3
390
F
  0
LAYER
  5
AA
330
2
100
AcDbSymbolTableRecord
100
AcDbLayerTableRecord
  2
Layer58
 70
     0
 62
     7
  6
Continuous
370
    -3
390
F
  0
LAYER
  5
AB
330
2
100
AcDbSymbolTableRecord
100
AcDbLayerTableRecord
  2
Layer59
 70
     0
 62
     7
  6
Continuous
370
    -3
390
F
  0
LAYER
  5
AC
330
2
100
AcDbSymbolTableRecord
100
AcDbLayerTableRecord
  2
Layer60
 70
     0
 62
     7
  6
Continuous
370
    -3
390
F
  0
LAYER
  5
AD
330
2
100
AcDbSymbolTableRecord
100
AcDbLayerTableRecord
  2
Layer61
 70
     0
 62
     7
  6
Continuous
370
    -3
390
F
  0
LAYER
  5
AE
330
2
100
AcDbSymbolTableRecord
100
AcDbLayerTableRecord
  2
Layer62
 70
     0
 62
     7
  6
Continuous
370
    -3
390
F
  0
LAYER
  5
AF
330
2
100
AcDbSymbolTableRecord
100
AcDbLayerTableRecord
  2
Layer63
 70
     0
 62
     7
  6
Continuous
370
    -3
390
F
  0
LAYER
  5
B0
330
2
100
AcDbSymbolTableRecord
100
AcDbLayerTableRecord
  2
Layer64
 70
     0
 62
     7
  6
Continuous
370
    -3
390
F
  0
LAYER
  5
B1
330
2
100
AcDbSymbolTableRecord
100
AcDbLayerTableRecord
  2
Layer65
 70
     0
 62
     7
  6
Continuous
370
    -3
390
F
  0
LAYER
  5
B2
330
2
100
AcDbSymbolTableRecord
100
AcDbLayerTableRecord
  2
Layer66
 70
     0
 62
     7
  6
Continuous
370
    -3
390
F
  0
LAYER
  5
B3
330
2
100
AcDbSymbolTableRecord
100
AcDbLayerTableRecord
  2
Layer67
 70
     0
 62
     7
  6
Continuous
370
    -3
390
F
  0
LAYER
  5
B4
330
2
100
AcDbSymbolTableRecord
100
AcDbLayerTableRecord
  2
Layer68
 70
     0
 62
     7
  6
Continuous
370
    -3
390
F
  0
LAYER
  5
B5
330
2
100
AcDbSymbolTableRecord
100
AcDbLayerTableRecord
  2
Layer69
 70
     0
 62
     7
  6
Continuous
370
    -3
390
F
  0
LAYER
  5
B6
330
2
100
AcDbSymbolTableRecord
100
AcDbLayerTableRecord
  2
Layer70
 70
     0
 62
     7
  6
Continuous
370
    -3
390
F
  0
LAYER
  5
B7
330
2
100
AcDbSymbolTableRecord
100
AcDbLayerTableRecord
  2
Layer71
 70
     0
 62
     7
  6
Continuous
370
    -3
390
F
  0
LAYER
  5
B8
330
2
100
AcDbSymbolTableRecord
100
AcDbLayerTableRecord
  2
Layer72
 70
     0
 62
     7
  6
Continuous
370
    -3
390
F
  0
LAYER
  5
B9
330
2
100
AcDbSymbolTableRecord
100
AcDbLayerTableRecord
  2
Layer73
 70
     0
 62
     7
  6
Continuous
370
    -3
390
F
  0
LAYER
  5
BA
330
2
100
AcDbSymbolTableRecord
100
AcDbLayerTableRecord
  2
Layer74
 70
     0
 62
     7
  6
Continuous
370
    -3
390
F
  0
LAYER
  5
BB
330
2
100
AcDbSymbolTableRecord
100
AcDbLayerTableRecord
  2
Layer75
 70
     0
 62
     7
  6
Continuous
370
    -3
390
F
  0
LAYER
  5
BC
330
2
100
AcDbSymbolTableRecord
100
AcDbLayerTableRecord
  2
Layer76
 70
     0
 62
     7
  6
Continuous
370
    -3
390
F
  0
LAYER
  5
BD
330
2
100
AcDbSymbolTableRecord
100
AcDbLayerTableRecord
  2
Layer77
 70
     0
 62
     7
  6
Continuous
370
    -3
390
F
  0
LAYER
  5
BE
330
2
100
AcDbSymbolTableRecord
100
AcDbLayerTableRecord
  2
Layer78
 70
     0
 62
     7
  6
Continuous
370
    -3
390
F
  0
LAYER
  5
BF
330
2
100
AcDbSymbolTableRecord
100
AcDbLayerTableRecord
  2
Layer79
 70
     0
 62
     7
  6
Continuous
370
    -3
390
F
  0
LAYER
  5
C0
330
2
100
AcDbSymbolTableRecord
100
AcDbLayerTableRecord
  2
Layer80
 70
     0
 62
     7
  6
Continuous
370
    -3
390
F
  0
LAYER
  5
C1
330
2
100
AcDbSymbolTableRecord
100
AcDbLayerTableRecord
  2
Layer81
 70
     0
 62
     7
  6
Continuous
370
    -3
390
F
  0
LAYER
  5
C2
330
2
100
AcDbSymbolTableRecord
100
AcDbLayerTableRecord
  2
Layer82
 70
     0
 62
     7
  6
Continuous
370
    -3
390
F
  0
LAYER
  5
C3
330
2
100
AcDbSymbolTableRecord
100
AcDbLayerTableRecord
  2
Layer83
 70
     0
 62
     7
  6
Continuous
370
    -3
390
F
  0
LAYER
  5
C4
330
2
100
AcDbSymbolTableRecord
100
AcDbLayerTableRecord
  2
Layer84
 70
     0
 62
     7
  6
Continuous
370
    -3
390
F
  0
LAYER
  5
C5
330
2
100
AcDbSymbolTableRecord
100
AcDbLayerTableRecord
  2
Layer85
 70
     0
 62
     7
  6
Continuous
370
    -3
390
F
  0
LAYER
  5
C6
330
2
100
AcDbSymbolTableRecord
100
AcDbLayerTableRecord
  2
Layer86
 70
     0
 62
     7
  6
Continuous
370
    -3
390
F
  0
LAYER
  5
C7
330
2
100
AcDbSymbolTableRecord
100
AcDbLayerTableRecord
  2
Layer87
 70
     0
 62
     7
  6
Continuous
370
    -3
390
F
  0
LAYER
  5
C8
330
2
100
AcDbSymbolTableRecord
100
AcDbLayerTableRecord
  2
Layer88
 70
     0
 62
     7
  6
Continuous
370
    -3
390
F
  0
LAYER
  5
C9
330
2
100
AcDbSymbolTableRecord
100
AcDbLayerTableRecord
  2
Layer89
 70
     0
 62
     7
  6
Continuous
370
    -3
390
F
  0
LAYER
  5
CA
330
2
100
AcDbSymbolTableRecord
100
AcDbLayerTableRecord
  2
Layer90
 70
     0
 62
     7
  6
Continuous
370
    -3
390
F
  0
LAYER
  5
CB
330
2
100
AcDbSymbolTableRecord
100
AcDbLayerTableRecord
  2
Layer91
 70
     0
 62
     7
  6
Continuous
370
    -3
390
F
  0
LAYER
  5
CC
330
2
100
AcDbSymbolTableRecord
100
AcDbLayerTableRecord
  2
Layer92
 70
     0
 62
     7
  6
Continuous
370
    -3
390
F
  0
LAYER
  5
CD
330
2
100
AcDbSymbolTableRecord
100
AcDbLayerTableRecord
  2
Layer93
 70
     0
 62
     7
  6
Continuous
370
    -3
390
F
  0
LAYER
  5
CE
330
2
100
AcDbSymbolTableRecord
100
AcDbLayerTableRecord
  2
Layer94
 70
     0
 62
     7
  6
Continuous
370
    -3
390
F
  0
LAYER
  5
CF
330
2
100
AcDbSymbolTableRecord
100
AcDbLayerTableRecord
  2
Layer95
 70
     0
 62
     7
  6
Continuous
370
    -3
390
F
  0
LAYER
  5
D0
330
2
100
AcDbSymbolTableRecord
100
AcDbLayerTableRecord
  2
Layer96
 70
     0
 62
     7
  6
Continuous
370
    -3
390
F
  0
LAYER
  5
D1
330
2
100
AcDbSymbolTableRecord
100
AcDbLayerTableRecord
  2
Layer97
 70
     0
 62
     7
  6
Continuous
370
    -3
390
F
  0
LAYER
  5
D2
330
2
100
AcDbSymbolTableRecord
100
AcDbLayerTableRecord
  2
Layer98
 70
     0
 62
     7
  6
Continuous
370
    -3
390
F
  0
LAYER
  5
D3
330
2
100
AcDbSymbolTableRecord
100
AcDbLayerTableRecord
  2
Layer99
 70
     0
 62
     7
  6
Continuous
370
    -3
390
F
  0
LAYER
  5
D4
330
2
100
AcDbSymbolTableRecord
100
AcDbLayerTableRecord
  2
Layer100
 70
     0
 62
     7
  6
Continuous
370
    -3
390
F
  0
LAYER
  5
D5
330
2
100
AcDbSymbolTableRecord
100
AcDbLayerTableRecord
  2
Layer101
 70
     0
 62
     7
  6
Continuous
370
    -3
390
F
  0
LAYER
  5
D6
330
2
100
AcDbSymbolTableRecord
100
AcDbLayerTableRecord
  2
Layer102
 70
     0
 62
     7
  6
Continuous
370
    -3
390
F
  0
LAYER
  5
D7
330
2
100
AcDbSymbolTableRecord
100
AcDbLayerTableRecord
  2
Layer103
 70
     0
 62
     7
  6
Continuous
370
    -3
390
F
  0
LAYER
  5
D8
330
2
100
AcDbSymbolTableRecord
100
AcDbLayerTableRecord
  2
Layer104
 70
     0
 62
     7
  6
Continuous
370
    -3
390
F
  0
LAYER
  5
D9
330
2
100
AcDbSymbolTableRecord
100
AcDbLayerTableRecord
  2
Layer105
 70
     0
 62
     7
  6
Continuous
370
    -3
390
F
  0
LAYER
  5
DA
330
2
100
AcDbSymbolTableRecord
100
AcDbLayerTableRecord
  2
Layer106
 70
     0
 62
     7
  6
Continuous
370
    -3
390
F
  0
LAYER
  5
DB
330
2
100
AcDbSymbolTableRecord
100
AcDbLayerTableRecord
  2
Layer107
 70
     0
 62
     7
  6
Continuous
370
    -3
390
F
  0
LAYER
  5
DC
330
2
100
AcDbSymbolTableRecord
100
AcDbLayerTableRecord
  2
Layer108
 70
     0
 62
     7
  6
Continuous
370
    -3
390
F
  0
LAYER
  5
DD
330
2
100
AcDbSymbolTableRecord
100
AcDbLayerTableRecord
  2
Layer109
 70
     0
 62
     7
  6
Continuous
370
    -3
390
F
  0
LAYER
  5
DE
330
2
100
AcDbSymbolTableRecord
100
AcDbLayerTableRecord
  2
Layer110
 70
     0
 62
     7
  6
Continuous
370
    -3
390
F
  0
LAYER
  5
DF
330
2
100
AcDbSymbolTableRecord
100
AcDbLayerTableRecord
  2
Layer111
 70
     0
 62
     7
  6
Continuous
370
    -3
390
F
  0
LAYER
  5
E0
330
2
100
AcDbSymbolTableRecord
100
AcDbLayerTableRecord
  2
Layer112
 70
     0
 62
     7
  6
Continuous
370
    -3
390
F
  0
LAYER
  5
E1
330
2
100
AcDbSymbolTableRecord
100
AcDbLayerTableRecord
  2
Layer113
 70
     0
 62
     7
  6
Continuous
370
    -3
390
F
  0
LAYER
  5
E2
330
2
100
AcDbSymbolTableRecord
100
AcDbLayerTableRecord
  2
Layer114
 70
     0
 62
     7
  6
Continuous
370
    -3
390
F
  0
LAYER
  5
E3
330
2
100
AcDbSymbolTableRecord
100
AcDbLayerTableRecord
  2
Layer115
 70
     0
 62
     7
  6
Continuous
370
    -3
390
F
  0
LAYER
  5
E4
330
2
100
AcDbSymbolTableRecord
100
AcDbLayerTableRecord
  2
Layer116
 70
     0
 62
     7
  6
Continuous
370
    -3
390
F
  0
LAYER
  5
E5
330
2
100
AcDbSymbolTableRecord
100
AcDbLayerTableRecord
  2
Layer117
 70
     0
 62
     7
  6
Continuous
370
    -3
390
F
  0
LAYER
  5
E6
330
2
100
AcDbSymbolTableRecord
100
AcDbLayerTableRecord
  2
Layer118
 70
     0
 62
     7
  6
Continuous
370
    -3
390
F
  0
LAYER
  5
E7
330
2
100
AcDbSymbolTableRecord
100
AcDbLayerTableRecord
  2
Layer119
 70
     0
 62
     7
  6
Continuous
370
    -3
390
F
  0
LAYER
  5
E8
330
2
100
AcDbSymbolTableRecord
100
AcDbLayerTableRecord
  2
Layer120
 70
     0
 62
     7
  6
Continuous
370
    -3
390
F
  0
LAYER
  5
E9
330
2
100
AcDbSymbolTableRecord
100
AcDbLayerTableRecord
  2
Layer121
 70
     0
 62
     7
  6
Continuous
370
    -3
390
F
  0
LAYER
  5
EA
330
2
100
AcDbSymbolTableRecord
100
AcDbLayerTableRecord
  2
Layer122
 70
     0
 62
     7
  6
Continuous
370
    -3
390
F
  0
LAYER
  5
EB
330
2
100
AcDbSymbolTableRecord
100
AcDbLayerTableRecord
  2
Layer123
 70
     0
 62
     7
  6
Continuous
370
    -3
390
F
  0
LAYER
  5
EC
330
2
100
AcDbSymbolTableRecord
100
AcDbLayerTableRecord
  2
Layer124
 70
     0
 62
     7
  6
Continuous
370
    -3
390
F
  0
LAYER
  5
ED
330
2
100
AcDbSymbolTableRecord
100
AcDbLayerTableRecord
  2
Layer125
 70
     0
 62
     7
  6
Continuous
370
    -3
390
F
  0
LAYER
  5
EE
330
2
100
AcDbSymbolTableRecord
100
AcDbLayerTableRecord
  2
Layer126
 70
     0
 62
     7
  6
Continuous
370
    -3
390
F
  0
LAYER
  5
EF
330
2
100
AcDbSymbolTableRecord
100
AcDbLayerTableRecord
  2
Layer127
 70
     0
 62
     7
  6
Continuous
370
    -3
390
F
  0
LAYER
  5
F0
330
2
100
AcDbSymbolTableRecord
100
AcDbLayerTableRecord
  2
Layer128
 70
     0
 62
     7
  6
Continuous
370
    -3
390
F
  0
LAYER
  5
F1
330
2
100
AcDbSymbolTableRecord
100
AcDbLayerTableRecord
  2
Layer129
 70
     0
 62
     7
  6
Continuous
370
    -3
390
F
  0
LAYER
  5
F2
330
2
100
AcDbSymbolTableRecord
100
AcDbLayerTableRecord
  2
Layer130
 70
     0
 62
     7
  6
Continuous
370
    -3
390
F
  0
LAYER
  5
F3
330
2
100
AcDbSymbolTableRecord
100
AcDbLayerTableRecord
  2
Layer131
 70
     0
 62
     7
  6
Continuous
370
    -3
390
F
  0
LAYER
  5
F4
330
2
100
AcDbSymbolTableRecord
100
AcDbLayerTableRecord
  2
Layer132
 70
     0
 62
     7
  6
Continuous
370
    -3
390
F
  0
LAYER
  5
F5
330
2
100
AcDbSymbolTableRecord
100
AcDbLayerTableRecord
  2
Layer133
 70
     0
 62
     7
  6
Continuous
370
    -3
390
F
  0
LAYER
  5
F6
330
2
100
AcDbSymbolTableRecord
100
AcDbLayerTableRecord
  2
Layer134
 70
     0
 62
     7
  6
Continuous
370
    -3
390
F
  0
LAYER
  5
F7
330
2
100
AcDbSymbolTableRecord
100
AcDbLayerTableRecord
  2
Layer135
 70
     0
 62
     7
  6
Continuous
370
    -3
390
F
  0
LAYER
  5
F8
330
2
100
AcDbSymbolTableRecord
100
AcDbLayerTableRecord
  2
Layer136
 70
     0
 62
     7
  6
Continuous
370
    -3
390
F
  0
LAYER
  5
F9
330
2
100
AcDbSymbolTableRecord
100
AcDbLayerTableRecord
  2
Layer137
 70
     0
 62
     7
  6
Continuous
370
    -3
390
F
  0
LAYER
  5
FA
330
2
100
AcDbSymbolTableRecord
100
AcDbLayerTableRecord
  2
Layer138
 70
     0
 62
     7
  6
Continuous
370
    -3
390
F
  0
LAYER
  5
FB
330
2
100
AcDbSymbolTableRecord
100
AcDbLayerTableRecord
  2
Layer139
 70
     0
 62
     7
  6
Continuous
370
    -3
390
F
  0
LAYER
  5
FC
330
2
100
AcDbSymbolTableRecord
100
AcDbLayerTableRecord
  2
Layer140
 70
     0
 62
     7
  6
Continuous
370
    -3
390
F
  0
LAYER
  5
FD
330
2
100
AcDbSymbolTableRecord
100
AcDbLayerTableRecord
  2
Layer141
 70
     0
 62
     7
  6
Continuous
370
    -3
390
F
  0
LAYER
  5
FE
330
2
100
AcDbSymbolTableRecord
100
AcDbLayerTableRecord
  2
Layer142
 70
     0
 62
     7
  6
Continuous
370
    -3
390
F
  0
LAYER
  5
FF
330
2
100
AcDbSymbolTableRecord
100
AcDbLayerTableRecord
  2
Layer143
 70
     0
 62
     7
  6
Continuous
370
    -3
390
F
  0
LAYER
  5
100
330
2
100
AcDbSymbolTableRecord
100
AcDbLayerTableRecord
  2
Layer144
 70
     0
 62
     7
  6
Continuous
370
    -3
390
F
  0
LAYER
  5
101
330
2
100
AcDbSymbolTableRecord
100
AcDbLayerTableRecord
  2
Layer145
 70
     0
 62
     7
  6
Continuous
370
    -3
390
F
  0
LAYER
  5
102
330
2
100
AcDbSymbolTableRecord
100
AcDbLayerTableRecord
  2
Layer146
 70
     0
 62
     7
  6
Continuous
370
    -3
390
F
  0
LAYER
  5
103
330
2
100
AcDbSymbolTableRecord
100
AcDbLayerTableRecord
  2
Layer147
 70
     0
 62
     7
  6
Continuous
370
    -3
390
F
  0
LAYER
  5
104
330
2
100
AcDbSymbolTableRecord
100
AcDbLayerTableRecord
  2
Layer148
 70
     0
 62
     7
  6
Continuous
370
    -3
390
F
  0
LAYER
  5
105
330
2
100
AcDbSymbolTableRecord
100
AcDbLayerTableRecord
  2
Layer149
 70
     0
 62
     7
  6
Continuous
370
    -3
390
F
  0
LAYER
  5
106
330
2
100
AcDbSymbolTableRecord
100
AcDbLayerTableRecord
  2
Layer150
 70
     0
 62
     7
  6
Continuous
370
    -3
390
F
  0
LAYER
  5
107
330
2
100
AcDbSymbolTableRecord
100
AcDbLayerTableRecord
  2
Layer151
 70
     0
 62
     7
  6
Continuous
370
    -3
390
F
  0
LAYER
  5
108
330
2
100
AcDbSymbolTableRecord
100
AcDbLayerTableRecord
  2
Layer152
 70
     0
 62
     7
  6
Continuous
370
    -3
390
F
  0
LAYER
  5
109
330
2
100
AcDbSymbolTableRecord
100
AcDbLayerTableRecord
  2
Layer153
 70
     0
 62
     7
  6
Continuous
370
    -3
390
F
  0
LAYER
  5
10A
330
2
100
AcDbSymbolTableRecord
100
AcDbLayerTableRecord
  2
Layer154
 70
     0
 62
     7
  6
Continuous
370
    -3
390
F
  0
LAYER
  5
10B
330
2
100
AcDbSymbolTableRecord
100
AcDbLayerTableRecord
  2
Layer155
 70
     0
 62
     7
  6
Continuous
370
    -3
390
F
  0
LAYER
  5
10C
330
2
100
AcDbSymbolTableRecord
100
AcDbLayerTableRecord
  2
Layer156
 70
     0
 62
     7
  6
Continuous
370
    -3
390
F
  0
LAYER
  5
10D
330
2
100
AcDbSymbolTableRecord
100
AcDbLayerTableRecord
  2
Layer157
 70
     0
 62
     7
  6
Continuous
370
    -3
390
F
  0
LAYER
  5
10E
330
2
100
AcDbSymbolTableRecord
100
AcDbLayerTableRecord
  2
Layer158
 70
     0
 62
     7
  6
Continuous
370
    -3
390
F
  0
LAYER
  5
10F
330
2
100
AcDbSymbolTableRecord
100
AcDbLayerTableRecord
  2
Layer159
 70
     0
 62
     7
  6
Continuous
370
    -3
390
F
  0
LAYER
  5
110
330
2
100
AcDbSymbolTableRecord
100
AcDbLayerTableRecord
  2
Layer160
 70
     0
 62
     7
  6
Continuous
370
    -3
390
F
  0
LAYER
  5
111
330
2
100
AcDbSymbolTableRecord
100
AcDbLayerTableRecord
  2
Layer161
 70
     0
 62
     7
  6
Continuous
370
    -3
390
F
  0
LAYER
  5
112
330
2
100
AcDbSymbolTableRecord
100
AcDbLayerTableRecord
  2
Layer162
 70
     0
 62
     7
  6
Continuous
370
    -3
390
F
  0
LAYER
  5
113
330
2
100
AcDbSymbolTableRecord
100
AcDbLayerTableRecord
  2
Layer163
 70
     0
 62
     7
  6
Continuous
370
    -3
390
F
  0
LAYER
  5
114
330
2
100
AcDbSymbolTableRecord
100
AcDbLayerTableRecord
  2
Layer164
 70
     0
 62
     7
  6
Continuous
370
    -3
390
F
  0
LAYER
  5
115
330
2
100
AcDbSymbolTableRecord
100
AcDbLayerTableRecord
  2
Layer165
 70
     0
 62
     7
  6
Continuous
370
    -3
390
F
  0
LAYER
  5
116
330
2
100
AcDbSymbolTableRecord
100
AcDbLayerTableRecord
  2
Layer166
 70
     0
 62
     7
  6
Continuous
370
    -3
390
F
  0
LAYER
  5
117
330
2
100
AcDbSymbolTableRecord
100
AcDbLayerTableRecord
  2
Layer167
 70
     0
 62
     7
  6
Continuous
370
    -3
390
F
  0
LAYER
  5
118
330
2
100
AcDbSymbolTableRecord
100
AcDbLayerTableRecord
  2
Layer168
 70
     0
 62
     7
  6
Continuous
370
    -3
390
F
  0
LAYER
  5
119
330
2
100
AcDbSymbolTableRecord
100
AcDbLayerTableRecord
  2
Layer169
 70
     0
 62
     7
  6
Continuous
370
    -3
390
F
  0
LAYER
  5
11A
330
2
100
AcDbSymbolTableRecord
100
AcDbLayerTableRecord
  2
Layer170
 70
     0
 62
     7
  6
Continuous
370
    -3
390
F
  0
LAYER
  5
11B
330
2
100
AcDbSymbolTableRecord
100
AcDbLayerTableRecord
  2
Layer171
 70
     0
 62
     7
  6
Continuous
370
    -3
390
F
  0
LAYER
  5
11C
330
2
100
AcDbSymbolTableRecord
100
AcDbLayerTableRecord
  2
Layer172
 70
     0
 62
     7
  6
Continuous
370
    -3
390
F
  0
LAYER
  5
11D
330
2
100
AcDbSymbolTableRecord
100
AcDbLayerTableRecord
  2
Layer173
 70
     0
 62
     7
  6
Continuous
370
    -3
390
F
  0
LAYER
  5
11E
330
2
100
AcDbSymbolTableRecord
100
AcDbLayerTableRecord
  2
Layer174
 70
     0
 62
     7
  6
Continuous
370
    -3
390
F
  0
LAYER
  5
11F
330
2
100
AcDbSymbolTableRecord
100
AcDbLayerTableRecord
  2
Layer175
 70
     0
 62
     7
  6
Continuous
370
    -3
390
F
  0
LAYER
  5
120
330
2
100
AcDbSymbolTableRecord
100
AcDbLayerTableRecord
  2
Layer176
 70
     0
 62
     7
  6
Continuous
370
    -3
390
F
  0
LAYER
  5
121
330
2
100
AcDbSymbolTableRecord
100
AcDbLayerTableRecord
  2
Layer177
 70
     0
 62
     7
  6
Continuous
370
    -3
390
F
  0
LAYER
  5
122
330
2
100
AcDbSymbolTableRecord
100
AcDbLayerTableRecord
  2
Layer178
 70
     0
 62
     7
  6
Continuous
370
    -3
390
F
  0
LAYER
  5
123
330
2
100
AcDbSymbolTableRecord
100
AcDbLayerTableRecord
  2
Layer179
 70
     0
 62
     7
  6
Continuous
370
    -3
390
F
  0
LAYER
  5
124
330
2
100
AcDbSymbolTableRecord
100
AcDbLayerTableRecord
  2
Layer180
 70
     0
 62
     7
  6
Continuous
370
    -3
390
F
  0
LAYER
  5
125
330
2
100
AcDbSymbolTableRecord
100
AcDbLayerTableRecord
  2
Layer181
 70
     0
 62
     7
  6
Continuous
370
    -3
390
F
  0
LAYER
  5
126
330
2
100
AcDbSymbolTableRecord
100
AcDbLayerTableRecord
  2
Layer182
 70
     0
 62
     7
  6
Continuous
370
    -3
390
F
  0
LAYER
  5
127
330
2
100
AcDbSymbolTableRecord
100
AcDbLayerTableRecord
  2
Layer183
 70
     0
 62
     7
  6
Continuous
370
    -3
390
F
  0
LAYER
  5
128
330
2
100
AcDbSymbolTableRecord
100
AcDbLayerTableRecord
  2
Layer184
 70
     0
 62
     7
  6
Continuous
370
    -3
390
F
  0
LAYER
  5
129
330
2
100
AcDbSymbolTableRecord
100
AcDbLayerTableRecord
  2
Layer185
 70
     0
 62
     7
  6
Continuous
370
    -3
390
F
  0
LAYER
  5
12A
330
2
100
AcDbSymbolTableRecord
100
AcDbLayerTableRecord
  2
Layer186
 70
     0
 62
     7
  6
Continuous
370
    -3
390
F
  0
LAYER
  5
12B
330
2
100
AcDbSymbolTableRecord
100
AcDbLayerTableRecord
  2
Layer187
 70
     0
 62
     7
  6
Continuous
370
    -3
390
F
  0
LAYER
  5
12C
330
2
100
AcDbSymbolTableRecord
100
AcDbLayerTableRecord
  2
Layer188
 70
     0
 62
     7
  6
Continuous
370
    -3
390
F
  0
LAYER
  5
12D
330
2
100
AcDbSymbolTableRecord
100
AcDbLayerTableRecord
  2
Layer189
 70
     0
 62
     7
  6
Continuous
370
    -3
390
F
  0
LAYER
  5
12E
330
2
100
AcDbSymbolTableRecord
100
AcDbLayerTableRecord
  2
Layer190
 70
     0
 62
     7
  6
Continuous
370
    -3
390
F
  0
LAYER
  5
12F
330
2
100
AcDbSymbolTableRecord
100
AcDbLayerTableRecord
  2
Layer191
 70
     0
 62
     7
  6
Continuous
370
    -3
390
F
  0
LAYER
  5
130
330
2
100
AcDbSymbolTableRecord
100
AcDbLayerTableRecord
  2
Layer192
 70
     0
 62
     7
  6
Continuous
370
    -3
390
F
  0
LAYER
  5
131
330
2
100
AcDbSymbolTableRecord
100
AcDbLayerTableRecord
  2
Layer193
 70
     0
 62
     7
  6
Continuous
370
    -3
390
F
  0
LAYER
  5
132
330
2
100
AcDbSymbolTableRecord
100
AcDbLayerTableRecord
  2
Layer194
 70
     0
 62
     7
  6
Continuous
370
    -3
390
F
  0
LAYER
  5
133
330
2
100
AcDbSymbolTableRecord
100
AcDbLayerTableRecord
  2
Layer195
 70
     0
 62
     7
  6
Continuous
370
    -3
390
F
  0
LAYER
  5
134
330
2
100
AcDbSymbolTableRecord
100
AcDbLayerTableRecord
  2
Layer196
 70
     0
 62
     7
  6
Continuous
370
    -3
390
F
  0
LAYER
  5
135
330
2
100
AcDbSymbolTableRecord
100
AcDbLayerTableRecord
  2
Layer197
 70
     0
 62
     7
  6
Continuous
370
    -3
390
F
  0
LAYER
  5
136
330
2
100
AcDbSymbolTableRecord
100
AcDbLayerTableRecord
  2
Layer198
 70
     0
 62
     7
  6
Continuous
370
    -3
390
F
  0
LAYER
  5
137
330
2
100
AcDbSymbolTableRecord
100
AcDbLayerTableRecord
  2
Layer199
 70
     0
 62
     7
  6
Continuous
370
    -3
390
F
  0
LAYER
  5
138
330
2
100
AcDbSymbolTableRecord
100
AcDbLayerTableRecord
  2
Layer200
 70
     0
 62
     7
  6
Continuous
370
    -3
390
F
  0
LAYER
  5
139
330
2
100
AcDbSymbolTableRecord
100
AcDbLayerTableRecord
  2
Layer201
 70
     0
 62
     7
  6
Continuous
370
    -3
390
F
  0
LAYER
  5
13A
330
2
100
AcDbSymbolTableRecord
100
AcDbLayerTableRecord
  2
Layer202
 70
     0
 62
     7
  6
Continuous
370
    -3
390
F
  0
LAYER
  5
13B
330
2
100
AcDbSymbolTableRecord
100
AcDbLayerTableRecord
  2
Layer203
 70
     0
 62
     7
  6
Continuous
370
    -3
390
F
  0
LAYER
  5
13C
330
2
100
AcDbSymbolTableRecord
100
AcDbLayerTableRecord
  2
Layer204
 70
     0
 62
     7
  6
Continuous
370
    -3
390
F
  0
LAYER
  5
13D
330
2
100
AcDbSymbolTableRecord
100
AcDbLayerTableRecord
  2
Layer205
 70
     0
 62
     7
  6
Continuous
370
    -3
390
F
  0
LAYER
  5
13E
330
2
100
AcDbSymbolTableRecord
100
AcDbLayerTableRecord
  2
Layer206
 70
     0
 62
     7
  6
Continuous
370
    -3
390
F
  0
LAYER
  5
13F
330
2
100
AcDbSymbolTableRecord
100
AcDbLayerTableRecord
  2
Layer207
 70
     0
 62
     7
  6
Continuous
370
    -3
390
F
  0
LAYER
  5
140
330
2
100
AcDbSymbolTableRecord
100
AcDbLayerTableRecord
  2
Layer208
 70
     0
 62
     7
  6
Continuous
370
    -3
390
F
  0
LAYER
  5
141
330
2
100
AcDbSymbolTableRecord
100
AcDbLayerTableRecord
  2
Layer209
 70
     0
 62
     7
  6
Continuous
370
    -3
390
F
  0
LAYER
  5
142
330
2
100
AcDbSymbolTableRecord
100
AcDbLayerTableRecord
  2
Layer210
 70
     0
 62
     7
  6
Continuous
370
    -3
390
F
  0
LAYER
  5
143
330
2
100
AcDbSymbolTableRecord
100
AcDbLayerTableRecord
  2
Layer211
 70
     0
 62
     7
  6
Continuous
370
    -3
390
F
  0
LAYER
  5
144
330
2
100
AcDbSymbolTableRecord
100
AcDbLayerTableRecord
  2
Layer212
 70
     0
 62
     7
  6
Continuous
370
    -3
390
F
  0
LAYER
  5
145
330
2
100
AcDbSymbolTableRecord
100
AcDbLayerTableRecord
  2
Layer213
 70
     0
 62
     7
  6
Continuous
370
    -3
390
F
  0
LAYER
  5
146
330
2
100
AcDbSymbolTableRecord
100
AcDbLayerTableRecord
  2
Layer214
 70
     0
 62
     7
  6
Continuous
370
    -3
390
F
  0
LAYER
  5
147
330
2
100
AcDbSymbolTableRecord
100
AcDbLayerTableRecord
  2
Layer215
 70
     0
 62
     7
  6
Continuous
370
    -3
390
F
  0
LAYER
  5
148
330
2
100
AcDbSymbolTableRecord
100
AcDbLayerTableRecord
  2
Layer216
 70
     0
 62
     7
  6
Continuous
370
    -3
390
F
  0
LAYER
  5
149
330
2
100
AcDbSymbolTableRecord
100
AcDbLayerTableRecord
  2
Layer217
 70
     0
 62
     7
  6
Continuous
370
    -3
390
F
  0
LAYER
  5
14A
330
2
100
AcDbSymbolTableRecord
100
AcDbLayerTableRecord
  2
Layer218
 70
     0
 62
     7
  6
Continuous
370
    -3
390
F
  0
LAYER
  5
14B
330
2
100
AcDbSymbolTableRecord
100
AcDbLayerTableRecord
  2
Layer219
 70
     0
 62
     7
  6
Continuous
370
    -3
390
F
  0
LAYER
  5
14C
330
2
100
AcDbSymbolTableRecord
100
AcDbLayerTableRecord
  2
Layer220
 70
     0
 62
     7
  6
Continuous
370
    -3
390
F
  0
LAYER
  5
14D
330
2
100
AcDbSymbolTableRecord
100
AcDbLayerTableRecord
  2
Layer221
 70
     0
 62
     7
  6
Continuous
370
    -3
390
F
  0
LAYER
  5
14E
330
2
100
AcDbSymbolTableRecord
100
AcDbLayerTableRecord
  2
Layer222
 70
     0
 62
     7
  6
Continuous
370
    -3
390
F
  0
LAYER
  5
14F
330
2
100
AcDbSymbolTableRecord
100
AcDbLayerTableRecord
  2
Layer223
 70
     0
 62
     7
  6
Continuous
370
    -3
390
F
  0
LAYER
  5
150
330
2
100
AcDbSymbolTableRecord
100
AcDbLayerTableRecord
  2
Layer224
 70
     0
 62
     7
  6
Continuous
370
    -3
390
F
  0
LAYER
  5
151
330
2
100
AcDbSymbolTableRecord
100
AcDbLayerTableRecord
  2
Layer225
 70
     0
 62
     7
  6
Continuous
370
    -3
390
F
  0
LAYER
  5
152
330
2
100
AcDbSymbolTableRecord
100
AcDbLayerTableRecord
  2
Layer226
 70
     0
 62
     7
  6
Continuous
370
    -3
390
F
  0
LAYER
  5
153
330
2
100
AcDbSymbolTableRecord
100
AcDbLayerTableRecord
  2
Layer227
 70
     0
 62
     7
  6
Continuous
370
    -3
390
F
  0
LAYER
  5
154
330
2
100
AcDbSymbolTableRecord
100
AcDbLayerTableRecord
  2
Layer228
 70
     0
 62
     7
  6
Continuous
370
    -3
390
F
  0
LAYER
  5
155
330
2
100
AcDbSymbolTableRecord
100
AcDbLayerTableRecord
  2
Layer229
 70
     0
 62
     7
  6
Continuous
370
    -3
390
F
  0
LAYER
  5
156
330
2
100
AcDbSymbolTableRecord
100
AcDbLayerTableRecord
  2
Layer230
 70
     0
 62
     7
  6
Continuous
370
    -3
390
F
  0
LAYER
  5
157
330
2
100
AcDbSymbolTableRecord
100
AcDbLayerTableRecord
  2
Layer231
 70
     0
 62
     7
  6
Continuous
370
    -3
390
F
  0
LAYER
  5
158
330
2
100
AcDbSymbolTableRecord
100
AcDbLayerTableRecord
  2
Layer232
 70
     0
 62
     7
  6
Continuous
370
    -3
390
F
  0
LAYER
  5
159
330
2
100
AcDbSymbolTableRecord
100
AcDbLayerTableRecord
  2
Layer233
 70
     0
 62
     7
  6
Continuous
370
    -3
390
F
  0
LAYER
  5
15A
330
2
100
AcDbSymbolTableRecord
100
AcDbLayerTableRecord
  2
Layer234
 70
     0
 62
     7
  6
Continuous
370
    -3
390
F
  0
LAYER
  5
15B
330
2
100
AcDbSymbolTableRecord
100
AcDbLayerTableRecord
  2
Layer235
 70
     0
 62
     7
  6
Continuous
370
    -3
390
F
  0
LAYER
  5
15C
330
2
100
AcDbSymbolTableRecord
100
AcDbLayerTableRecord
  2
Layer236
 70
     0
 62
     7
  6
Continuous
370
    -3
390
F
  0
LAYER
  5
15D
330
2
100
AcDbSymbolTableRecord
100
AcDbLayerTableRecord
  2
Layer237
 70
     0
 62
     7
  6
Continuous
370
    -3
390
F
  0
LAYER
  5
15E
330
2
100
AcDbSymbolTableRecord
100
AcDbLayerTableRecord
  2
Layer238
 70
     0
 62
     7
  6
Continuous
370
    -3
390
F
  0
LAYER
  5
15F
330
2
100
AcDbSymbolTableRecord
100
AcDbLayerTableRecord
  2
Layer239
 70
     0
 62
     7
  6
Continuous
370
    -3
390
F
  0
LAYER
  5
160
330
2
100
AcDbSymbolTableRecord
100
AcDbLayerTableRecord
  2
Layer240
 70
     0
 62
     7
  6
Continuous
370
    -3
390
F
  0
LAYER
  5
161
330
2
100
AcDbSymbolTableRecord
100
AcDbLayerTableRecord
  2
Layer241
 70
     0
 62
     7
  6
Continuous
370
    -3
390
F
  0
LAYER
  5
162
330
2
100
AcDbSymbolTableRecord
100
AcDbLayerTableRecord
  2
Layer242
 70
     0
 62
     7
  6
Continuous
370
    -3
390
F
  0
LAYER
  5
163
330
2
100
AcDbSymbolTableRecord
100
AcDbLayerTableRecord
  2
Layer243
 70
     0
 62
     7
  6
Continuous
370
    -3
390
F
  0
LAYER
  5
164
330
2
100
AcDbSymbolTableRecord
100
AcDbLayerTableRecord
  2
Layer244
 70
     0
 62
     7
  6
Continuous
370
    -3
390
F
  0
LAYER
  5
165
330
2
100
AcDbSymbolTableRecord
100
AcDbLayerTableRecord
  2
Layer245
 70
     0
 62
     7
  6
Continuous
370
    -3
390
F
  0
LAYER
  5
166
330
2
100
AcDbSymbolTableRecord
100
AcDbLayerTableRecord
  2
Layer246
 70
     0
 62
     7
  6
Continuous
370
    -3
390
F
  0
LAYER
  5
167
330
2
100
AcDbSymbolTableRecord
100
AcDbLayerTableRecord
  2
Layer247
 70
     0
 62
     7
  6
Continuous
370
    -3
390
F
  0
LAYER
  5
168
330
2
100
AcDbSymbolTableRecord
100
AcDbLayerTableRecord
  2
Layer248
 70
     0
 62
     7
  6
Continuous
370
    -3
390
F
  0
LAYER
  5
169
330
2
100
AcDbSymbolTableRecord
100
AcDbLayerTableRecord
  2
Layer249
 70
     0
 62
     7
  6
Continuous
370
    -3
390
F
  0
LAYER
  5
16A
330
2
100
AcDbSymbolTableRecord
100
AcDbLayerTableRecord
  2
Layer250
 70
     0
 62
     7
  6
Continuous
370
    -3
390
F
  0
LAYER
  5
16B
330
2
100
AcDbSymbolTableRecord
100
AcDbLayerTableRecord
  2
Layer251
 70
     0
 62
     7
  6
Continuous
370
    -3
390
F
  0
LAYER
  5
16C
330
2
100
AcDbSymbolTableRecord
100
AcDbLayerTableRecord
  2
Layer252
 70
     0
 62
     7
  6
Continuous
370
    -3
390
F
  0
LAYER
  5
16D
330
2
100
AcDbSymbolTableRecord
100
AcDbLayerTableRecord
  2
Layer253
 70
     0
 62
     7
  6
Continuous
370
    -3
390
F
  0
LAYER
  5
16E
330
2
100
AcDbSymbolTableRecord
100
AcDbLayerTableRecord
  2
Layer254
 70
     0
 62
     7
  6
Continuous
370
    -3
390
F
  0
LAYER
  5
16F
330
2
100
AcDbSymbolTableRecord
100
AcDbLayerTableRecord
  2
Layer255
 70
     0
 62
     7
  6
Continuous
370
    -3
390
F
  0
ENDTAB
  0
TABLE
  2
STYLE
  5
3
330
0
100
AcDbSymbolTable
 70
     5
  0
STYLE
  5
11
330
3
100
AcDbSymbolTableRecord
100
AcDbTextStyleTableRecord
  2
Standard
 70
     0
 40
0.0
 41
1.0
 50
0.0
 71
     0
 42
2.5
  3
txt
  4

  0
STYLE
  5
6C
330
3
100
AcDbSymbolTableRecord
100
AcDbTextStyleTableRecord
  2
Arial
 70
     0
 40
0.0
 41
1.0
 50
0.0
 71
     0
 42
2.5
  3
arial.ttf
  4

1001
ACAD
1000
Arial
1071
       34
  0
STYLE
  5
6D
330
3
100
AcDbSymbolTableRecord
100
AcDbTextStyleTableRecord
  2
Lucida Calligraphy
 70
     0
 40
0.0
 41
1.0
 50
0.0
 71
     0
 42
2.5
  3
arial.ttf
  4

1001
ACAD
1000
Arial
1071
       66
  0
STYLE
  5
6E
330
3
100
AcDbSymbolTableRecord
100
AcDbTextStyleTableRecord
  2
Brush Script MT
 70
     0
 40
0.0
 41
1.0
 50
0.0
 71
     0
 42
2.5
  3

  4

1001
ACAD
1000
Arial
1071
       66
  0
STYLE
  5
6F
330
3
100
AcDbSymbolTableRecord
100
AcDbTextStyleTableRecord
  2
Toleranzfont
 70
     0
 40
0.0
 41
1.0
 50
0.0
 71
     0
 42
2.5
  3
IGES1003.SHX
  4

  0
ENDTAB
  0
TABLE
  2
VIEW
  5
6
330
0
100
AcDbSymbolTable
 70
     0
  0
ENDTAB
  0
TABLE
  2
UCS
  5
7
330
0
100
AcDbSymbolTable
 70
     0
  0
ENDTAB
  0
TABLE
  2
APPID
  5
9
330
0
100
AcDbSymbolTable
 70
     1
  0
APPID
  5
12
330
9
100
AcDbSymbolTableRecord
100
AcDbRegAppTableRecord
  2
ACAD
 70
     0
  0
ENDTAB
  0
TABLE
  2
DIMSTYLE
  5
A
330
0
100
AcDbSymbolTable
 70
     1
100
AcDbDimStyleTable
  0
DIMSTYLE
105
27
330
A
100
AcDbSymbolTableRecord
100
AcDbDimStyleTableRecord
  2
ISO-25
 70
     0
 41
2.5
 42
0.625
 43
3.75
 44
1.25
 73
     0
 74
     0
 77
     1
 78
     8
140
2.5
141
2.5
143
0.03937007874
147
0.625
171
     3
172
     1
178
     0
271
     2
272
     2
274
     3
278
    44
283
     0
284
     8
340
11
  0
ENDTAB
  0
TABLE
  2
BLOCK_RECORD
  5
1
330
0
100
AcDbSymbolTable
 70
    11
  0
BLOCK_RECORD
  5
1F
330
1
100
AcDbSymbolTableRecord
100
AcDbBlockTableRecord
  2
*Model_Space
340
22
  0
BLOCK_RECORD
  5
1B
330
1
100
AcDbSymbolTableRecord
100
AcDbBlockTableRecord
  2
*Paper_Space
340
1E
  0
BLOCK_RECORD
  5
23
330
1
100
AcDbSymbolTableRecord
100
AcDbBlockTableRecord
  2
*Paper_Space0
340
26
  0
BLOCK_RECORD
  5
170
330
1
100
AcDbSymbolTableRecord
100
AcDbBlockTableRecord
  2
Inch
340
0
102
{BLKREFS
331
324
102
}
  0
BLOCK_RECORD
  5
178
330
1
100
AcDbSymbolTableRecord
100
AcDbBlockTableRecord
  2
DimBlk_nNn01
340
0
102
{BLKREFS
331
183
102
}
  0
BLOCK_RECORD
  5
189
330
1
100
AcDbSymbolTableRecord
100
AcDbBlockTableRecord
  2
DimBlk_nNn02
340
0
102
{BLKREFS
331
194
102
}
  0
BLOCK_RECORD
  5
1A7
330
1
100
AcDbSymbolTableRecord
100
AcDbBlockTableRecord
  2
DimBlk_nNn03
340
0
102
{BLKREFS
331
1B5
102
}
  0
BLOCK_RECORD
  5
1B6
330
1
100
AcDbSymbolTableRecord
100
AcDbBlockTableRecord
  2
DimBlk_nNn04
340
0
102
{BLKREFS
331
1C4
102
}
  0
BLOCK_RECORD
  5
1CC
330
1
100
AcDbSymbolTableRecord
100
AcDbBlockTableRecord
  2
DimBlk_nNn05
340
0
102
{BLKREFS
331
1DA
102
}
  0
BLOCK_RECORD
  5
1E4
330
1
100
AcDbSymbolTableRecord
100
AcDbBlockTableRecord
  2
DimBlk_nNn06
340
0
102
{BLKREFS
331
1F2
102
}
  0
BLOCK_RECORD
  5
1F5
330
1
100
AcDbSymbolTableRecord
100
AcDbBlockTableRecord
  2
DimBlk_nNn07
340
0
102
{BLKREFS
331
203
102
}
  0
BLOCK_RECORD
  5
206
330
1
100
AcDbSymbolTableRecord
100
AcDbBlockTableRecord
  2
DimBlk_nNn08
340
0
102
{BLKREFS
331
214
102
}
  0
BLOCK_RECORD
  5
2C9
330
1
100
AcDbSymbolTableRecord
100
AcDbBlockTableRecord
  2
*X10
340
0
102
{BLKREFS
331
321
102
}
  0
ENDTAB
  0
ENDSEC
  0
SECTION
  2
BLOCKS
  0
BLOCK
  5
20
330
1F
100
AcDbEntity
  8
0
100
AcDbBlockBegin
  2
*Model_Space
 70
     0
 10
0.0
 20
0.0
 30
0.0
  3
*Model_Space
  1
*Model_Space
  0
ENDBLK
  5
21
330
1F
100
AcDbEntity
  8
0
100
AcDbBlockEnd
  0
BLOCK
  5
1C
330
1B
100
AcDbEntity
 67
     1
  8
0
100
AcDbBlockBegin
  2
*Paper_Space
 70
     0
 10
0.0
 20
0.0
 30
0.0
  3
*Paper_Space
  1
*Paper_Space
  0
ENDBLK
  5
1D
330
1B
100
AcDbEntity
 67
     1
  8
0
100
AcDbBlockEnd
  0
BLOCK
  5
24
330
23
100
AcDbEntity
  8
0
100
AcDbBlockBegin
  2
*Paper_Space0
 70
     0
 10
0.0
 20
0.0
 30
0.0
  3
*Paper_Space0
  1
*Paper_Space0
  0
ENDBLK
  5
25
330
23
100
AcDbEntity
  8
0
100
AcDbBlockEnd
  0
BLOCK
  5
171
330
170
100
AcDbEntity
  8
0
100
AcDbBlockBegin
  2
Inch
 70
     0
 10
0.0
 20
0.0
 30
0.0
  3
Inch
  1
Inch
  0
LINE
  5
173
330
170
100
AcDbEntity
  8
PROFILE
  6
AUSGEZOGEN
 62
     3
420
    65280
370
    18
100
AcDbLine
 10
387.509066068791
 20
-90.987264675757
 30
0.0
 11
266.859066068791
 21
-90.987264675757
 31
0.0
  0
LINE
  5
174
330
170
100
AcDbEntity
  8
PROFILE
  6
AUSGEZOGEN
 62
     5
420
      255
370
    18
100
AcDbLine
 10
367.519266068791
 20
-27.817464675757
 30
0.0
 11
367.519266068791
 21
-1.924842082182
 31
0.0
  0
LINE
  5
175
330
170
100
AcDbEntity
  8
PROFILE
  6
AUSGEZOGEN
 62
     5
420
      255
370
    18
100
AcDbLine
 10
348.477836910277
 20
-30.992464675757
 30
0.0
 11
348.477836910277
 21
-1.924842082182
 31
0.0
  0
LINE
  5
176
330
170
100
AcDbEntity
  8
PROFILE
  6
AUSGEZOGEN
 62
     3
420
    65280
370
    18
100
AcDbLine
 10
387.509066068791
 20
-90.987264675757
 30
0.0
 11
387.509066068791
 21
-27.817464675757
 31
0.0
  0
LINE
  5
177
330
170
100
AcDbEntity
  8
PROFILE
  6
AUSGEZOGEN
 62
     7
420
 16777215
370
    18
100
AcDbLine
 10
367.519266068791
 20
-54.674203109803
 30
0.0
 11
367.519266068791
 21
-42.191588196507
 31
0.0
  0
INSERT
  5
183
330
170
100
AcDbEntity
  8
0
100
AcDbBlockReference
  2
DimBlk_nNn01
 10
0.0
 20
0.0
 30
0.0
  0
LINE
  5
184
330
170
100
AcDbEntity
  8
PROFILE
  6
AUSGEZOGEN
 62
     3
420
    65280
370
    18
100
AcDbLine
 10
298.9677138276
 20
-30.992464675757
 30
0.0
 11
297.544102093162
 21
-30.992464675757
 31
0.0
  0
LINE
  5
185
330
170
100
AcDbEntity
  8
PROFILE
  6
AUSGEZOGEN
 62
     3
420
    65280
370
    18
100
AcDbLine
 10
326.82178305055
 20
-27.817464675757
 30
0.0
 11
300.380077216625
 21
-27.817464675757
 31
0.0
  0
LINE
  5
186
330
170
100
AcDbEntity
  8
PROFILE
  6
AUSGEZOGEN
 62
     5
420
      255
370
    18
100
AcDbLine
 10
305.890295227305
 20
-27.817464675757
 30
0.0
 11
305.890295227305
 21
-1.924842082182
 31
0.0
  0
LINE
  5
187
330
170
100
AcDbEntity
  8
PROFILE
  6
AUSGEZOGEN
 62
     5
420
      255
370
    18
100
AcDbLine
 10
286.848866068791
 20
-30.992464675757
 30
0.0
 11
286.848866068791
 21
-1.924842082182
 31
0.0
  0
LINE
  5
188
330
170
100
AcDbEntity
  8
PROFILE
  6
AUSGEZOGEN
 62
     7
420
 16777215
370
    18
100
AcDbLine
 10
286.848866068791
 20
-54.674203109803
 30
0.0
 11
286.848866068791
 21
-42.191588196507
 31
0.0
  0
INSERT
  5
194
330
170
100
AcDbEntity
  8
0
100
AcDbBlockReference
  2
DimBlk_nNn02
 10
0.0
 20
0.0
 30
0.0
  0
LINE
  5
195
330
170
100
AcDbEntity
  8
PROFILE
  6
AUSGEZOGEN
 62
     3
420
    65280
370
    18
100
AcDbLine
 10
266.859066068791
 20
-90.987264675757
 30
0.0
 11
266.859066068791
 21
-30.992464675757
 31
0.0
  0
LINE
  5
196
330
170
100
AcDbEntity
  8
PROFILE
  6
AUSGEZOGEN
 62
     3
420
    65280
370
    18
100
AcDbLine
 10
327.26800020073
 20
-30.992464675757
 30
0.0
 11
326.82178305055
 21
-27.817464675757
 31
0.0
  0
WIPEOUT
  5
197
330
170
100
AcDbEntity
  8
PROFILE
  6
AUSGEZOGEN
 62
    16
420
  8388608
370
    18
 92
      308
310
34010000070000000C0000000E000000120000000C00000016000000000000C20C00000014000000010000006C0000000700000004000000FCA3A29110C17040EA6B2397D0F93A40000000000000000030D7E52DD59E7340EA6B2397D0F93A40000000000000000030D7E52DD59E7340C2825E18B549404000000000000000
310
00FCA3A29110C17040C2825E18B549404000000000000000000C0000000E000000100000000C00000016000000000080C2840000000600000005000000FCA3A29110C17040EA6B2397D0F93A40000000000000000030D7E52DD59E7340EA6B2397D0F93A40000000000000000030D7E52DD59E7340C2825E18B54940400000
310
000000000000FCA3A29110C17040C2825E18B54940400000000000000000FCA3A29110C17040EA6B2397D0F93A400000000000000000
100
AcDbWipeout
 90
        0
 10
268.066545138659
 20
26.975839086674
 30
0.0
 11
45.86050058603286
 21
0.0
 31
0.0
 12
0.0
 22
45.86050058603286
 32
0.0
 13
1.0
 23
1.0
340
0
 70
     7
280
     1
281
    50
282
    50
283
     0
360
0
 71
     2
 91
        5
 14
-0.5
 24
0.5
 14
0.5
 24
0.5
 14
0.5
 24
0.377890560974
 14
-0.5
 24
0.377890560974
 14
-0.5
 24
0.5
  0
TEXT
  5
198
330
170
100
AcDbEntity
  8
PROFILE
  6
AUSGEZOGEN
 62
    16
420
  8388608
370
    18
100
AcDbText
 10
268.066545138659
 20
28.025839086674
 30
0.0
 40
3.5
  1
3/4" X Random
 41
1.391272050057
  7
Arial
 72
     5
 11
313.927045724692
 21
28.025839086674
 31
0.0
100
AcDbText
  0
WIPEOUT
  5
199
330
170
100
AcDbEntity
  8
PROFILE
  6
AUSGEZOGEN
 62
    16
420
  8388608
370
    18
 92
      308
310
34010000070000000C0000000E000000120000000C00000016000000000000C20C00000014000000010000006C00000007000000040000001279C15EFD2D754016C693FB6D9B3A400000000000000000DE45FE52FBC5774016C693FB6D9B3A400000000000000000DE45FE52FBC57740D8AF96CA831A404000000000000000
310
001279C15EFD2D7540D8AF96CA831A404000000000000000000C0000000E000000100000000C00000016000000000080C28400000006000000050000001279C15EFD2D754016C693FB6D9B3A400000000000000000DE45FE52FBC5774016C693FB6D9B3A400000000000000000DE45FE52FBC57740D8AF96CA831A40400000
310
0000000000001279C15EFD2D7540D8AF96CA831A404000000000000000001279C15EFD2D754016C693FB6D9B3A400000000000000000
100
AcDbWipeout
 90
        0
 10
338.874357944254
 20
26.60714695318
 30
0.0
 11
41.49950050115586
 21
0.0
 31
0.0
 12
0.0
 22
41.49950050115586
 32
0.0
 13
1.0
 23
1.0
340
0
 70
     7
280
     1
281
    50
282
    50
283
     0
360
0
 71
     2
 91
        5
 14
-0.5
 24
0.5
 14
0.5
 24
0.5
 14
0.5
 24
0.365058616794
 14
-0.5
 24
0.365058616794
 14
-0.5
 24
0.5
  0
TEXT
  5
19A
330
170
100
AcDbEntity
  8
PROFILE
  6
AUSGEZOGEN
 62
    16
420
  8388608
370
    18
100
AcDbText
 10
338.874357944254
 20
27.65714695318
 30
0.0
 40
3.5
  1
TG .750" - 38
 41
1.423067708016
  7
Arial
 72
     5
 11
380.373858445409
 21
27.65714695318
 31
0.0
100
AcDbText
  0
LWPOLYLINE
  5
19B
330
170
100
AcDbEntity
  8
PROFILE
  6
AUSGEZOGEN
 62
     5
420
      255
370
    18
100
AcDbPolyline
 90
       14
 70
     0
 43
0.0
 10
286.848866068791
 20
-1.924842082182
 10
289.16937414448
 20
-1.924842082182
 10
289.839247125558
 20
0.575157917818
 10
291.178993087713
 20
-4.424842082182
 10
291.848866068791
 20
-1.924842082182
 10
294.16937414448
 20
-1.924842082182
 10
294.839247125558
 20
0.575157917818
 10
296.178993087713
 20
-4.424842082182
 10
296.848866068791
 20
-1.924842082182
 10
299.16937414448
 20
-1.924842082182
 10
299.839247125558
 20
0.575157917818
 10
301.178993087713
 20
-4.424842082182
 10
301.848866068791
 20
-1.924842082182
 10
305.890295227305
 20
-1.924842082182
  0
LWPOLYLINE
  5
19C
330
170
100
AcDbEntity
  8
PROFILE
  6
AUSGEZOGEN
 62
     5
420
      255
370
    18
100
AcDbPolyline
 90
       14
 70
     0
 43
0.0
 10
348.477836910277
 20
-1.924842082182
 10
350.798344985966
 20
-1.924842082182
 10
351.468217967044
 20
0.575157917818
 10
352.807963929199
 20
-4.424842082182
 10
353.477836910277
 20
-1.924842082182
 10
355.798344985966
 20
-1.924842082182
 10
356.468217967044
 20
0.575157917818
 10
357.807963929199
 20
-4.424842082182
 10
358.477836910277
 20
-1.924842082182
 10
360.798344985966
 20
-1.924842082182
 10
361.468217967044
 20
0.575157917818
 10
362.807963929199
 20
-4.424842082182
 10
363.477836910277
 20
-1.924842082182
 10
367.519266068791
 20
-1.924842082182
  0
WIPEOUT
  5
19D
330
170
100
AcDbEntity
  8
PROFILE
  6
AUSGEZOGEN
 62
     7
420
 16777215
370
    18
 92
      308
310
34010000070000000C0000000E000000120000000C00000016000000000000C20C00000014000000010000006C000000070000000400000098493DBF5388774010716AE9AE3156C00000000000000000CB7CB0799DC8774010716AE9AE3156C00000000000000000CB7CB0799DC87740AA0A048348CB54C000000000000000
310
0098493DBF53887740AA0A048348CB54C000000000000000000C0000000E000000070000000C00000016000000FFFFFFC284000000060000000500000098493DBF5388774010716AE9AE3156C00000000000000000CB7CB0799DC8774010716AE9AE3156C00000000000000000CB7CB0799DC87740AA0A048348CB54C00000
310
00000000000098493DBF53887740AA0A048348CB54C0000000000000000098493DBF5388774010716AE9AE3156C00000000000000000
100
AcDbWipeout
 90
        0
 10
376.520446051983
 20
-88.776300767848
 30
0.0
 11
5.599999999999994
 21
0.0
 31
0.0
 12
0.0
 22
5.599999999999994
 32
0.0
 13
1.0
 23
1.0
340
0
 70
     7
280
     1
281
    50
282
    50
283
     0
360
0
 71
     2
 91
        5
 14
-0.5
 24
0.5
 14
0.217500013965
 24
0.5
 14
0.217500013965
 24
-0.5
 14
-0.5
 24
-0.5
 14
-0.5
 24
0.5
  0
TEXT
  5
19E
330
170
100
AcDbEntity
  8
PROFILE
  6
AUSGEZOGEN
 62
     7
420
 16777215
370
    18
100
AcDbText
 10
376.520446051983
 20
-87.726300767848
 30
0.0
 40
3.5
  1
R
 41
1.138888911055
  7
Arial
 72
     5
 11
380.538446130184
 21
-87.726300767848
 31
0.0
100
AcDbText
  0
WIPEOUT
  5
19F
330
170
100
AcDbEntity
  8
PROFILE
  6
AUSGEZOGEN
 62
     7
420
 16777215
370
    18
 92
      308
310
34010000070000000C0000000E000000120000000C00000016000000000000C20C00000014000000010000006C00000007000000040000005F5CA1C4B91E71405EB559D4BFCC55C000000000000000002C29CE1E1E5071405EB559D4BFCC55C000000000000000002C29CE1E1E507140F84EF36D596654C000000000000000
310
005F5CA1C4B91E7140F84EF36D596654C000000000000000000C0000000E000000070000000C00000016000000FFFFFFC28400000006000000050000005F5CA1C4B91E71405EB559D4BFCC55C000000000000000002C29CE1E1E5071405EB559D4BFCC55C000000000000000002C29CE1E1E507140F84EF36D596654C00000
310
0000000000005F5CA1C4B91E7140F84EF36D596654C000000000000000005F5CA1C4B91E71405EB559D4BFCC55C00000000000000000
100
AcDbWipeout
 90
        0
 10
273.920353536907
 20
-87.19920834313
 30
0.0
 11
5.599999999999994
 21
0.0
 31
0.0
 12
0.0
 22
5.599999999999994
 32
0.0
 13
1.0
 23
1.0
340
0
 70
     7
280
     1
281
    50
282
    50
283
     0
360
0
 71
     2
 91
        5
 14
-0.5
 24
0.5
 14
0.051250010729
 24
0.5
 14
0.051250010729
 24
-0.5
 14
-0.5
 24
-0.5
 14
-0.5
 24
0.5
  0
TEXT
  5
1A0
330
170
100
AcDbEntity
  8
PROFILE
  6
AUSGEZOGEN
 62
     7
420
 16777215
370
    18
100
AcDbText
 10
273.920353536907
 20
-86.14920834313
 30
0.0
 40
3.5
  1
L
 41
1.136597960266
  7
Arial
 72
     5
 11
277.007353596988
 21
-86.14920834313
 31
0.0
100
AcDbText
  0
WIPEOUT
  5
1A1
330
170
100
AcDbEntity
  8
PROFILE
  6
AUSGEZOGEN
 62
     7
420
 16777215
370
    18
 92
      308
310
34010000070000000C0000000E000000120000000C00000016000000000000C20C00000014000000010000006C000000070000000400000008874E207D1873401CEB77F56A5A4CC00000000000000000D4538B147BB075401CEB77F56A5A4CC00000000000000000D4538B147BB075404F1EAB289E8D49C000000000000000
310
0008874E207D1873404F1EAB289E8D49C000000000000000000C0000000E000000070000000C00000016000000FFFFFFC284000000060000000500000008874E207D1873401CEB77F56A5A4CC00000000000000000D4538B147BB075401CEB77F56A5A4CC00000000000000000D4538B147BB075404F1EAB289E8D49C00000
310
00000000000008874E207D1873404F1EAB289E8D49C0000000000000000008874E207D1873401CEB77F56A5A4CC00000000000000000
100
AcDbWipeout
 90
        0
 10
305.530548388241
 20
-56.706389125399
 30
0.0
 11
41.49950050115586
 21
0.0
 31
0.0
 12
0.0
 22
41.49950050115586
 32
0.0
 13
1.0
 23
1.0
340
0
 70
     7
280
     1
281
    50
282
    50
283
     0
360
0
 71
     2
 91
        5
 14
-0.5
 24
0.5
 14
0.5
 24
0.5
 14
0.5
 24
0.365058616794
 14
-0.5
 24
0.365058616794
 14
-0.5
 24
0.5
  0
TEXT
  5
1A2
330
170
100
AcDbEntity
  8
PROFILE
  6
AUSGEZOGEN
 62
     7
420
 16777215
370
    18
100
AcDbText
 10
305.530548388241
 20
-55.656389125399
 30
0.0
 40
3.5
  1
TG .750" - 38
 41
1.423067708016
  7
Arial
 72
     5
 11
347.030048889397
 21
-55.656389125399
 31
0.0
100
AcDbText
  0
WIPEOUT
  5
1A3
330
170
100
AcDbEntity
  8
PROFILE
  6
AUSGEZOGEN
 62
     1
420
 16711680
370
    18
 92
      308
310
34010000070000000C0000000E000000120000000C00000016000000000000C20C00000014000000010000006C000000070000000400000090E11EBC0A127440DDE6D6CF17B95EC000000000000000005CAE5BB008AA7640DDE6D6CF17B95EC000000000000000005CAE5BB008AA764077807069B1525DC000000000000000
310
0090E11EBC0A12744077807069B1525DC000000000000000000C0000000E000000010000000C000000160000000000FFC284000000060000000500000090E11EBC0A127440DDE6D6CF17B95EC000000000000000005CAE5BB008AA7640DDE6D6CF17B95EC000000000000000005CAE5BB008AA764077807069B1525DC00000
310
00000000000090E11EBC0A12744077807069B1525DC0000000000000000090E11EBC0A127440DDE6D6CF17B95EC00000000000000000
100
AcDbWipeout
 90
        0
 10
321.127620812063
 20
-122.892078361383
 30
0.0
 11
41.49950050115586
 21
0.0
 31
0.0
 12
0.0
 22
41.49950050115586
 32
0.0
 13
1.0
 23
1.0
340
0
 70
     7
280
     1
281
    50
282
    50
283
     0
360
0
 71
     2
 91
        5
 14
-0.5
 24
0.5
 14
0.5
 24
0.5
 14
0.5
 24
0.365058616794
 14
-0.5
 24
0.365058616794
 14
-0.5
 24
0.5
  0
TEXT
  5
1A4
330
170
100
AcDbEntity
  8
PROFILE
  6
AUSGEZOGEN
 62
     1
420
 16711680
370
    18
100
AcDbText
 10
321.127620812063
 20
-121.842078361383
 30
0.0
 40
3.5
  1
TG .750" - 38
 41
1.423067708016
  7
Arial
 72
     5
 11
362.627121313218
 21
-121.842078361383
 31
0.0
100
AcDbText
  0
WIPEOUT
  5
1A5
330
170
100
AcDbEntity
  8
PROFILE
  6
AUSGEZOGEN
 62
     7
420
 16777215
370
    18
 92
      308
310
34010000070000000C0000000E000000120000000C00000016000000000000C20C00000014000000010000006C0000000700000004000000EE46B3826ED77040A4DC06163DA058C0000000000000000088E05C38371E7840A4DC06163DA058C0000000000000000088E05C38371E78403E76A0AFD63957C000000000000000
310
00EE46B3826ED770403E76A0AFD63957C000000000000000000C0000000E000000070000000C00000016000000FFFFFFC2840000000600000005000000EE46B3826ED77040A4DC06163DA058C0000000000000000088E05C38371E7840A4DC06163DA058C0000000000000000088E05C38371E78403E76A0AFD63957C00000
310
000000000000EE46B3826ED770403E76A0AFD63957C00000000000000000EE46B3826ED77040A4DC06163DA058C00000000000000000
100
AcDbWipeout
 90
        0
 10
269.46448011427
 20
-98.503728396131
 30
0.0
 11
116.4240013718605
 21
0.0
 31
0.0
 12
0.0
 22
116.4240013718605
 32
0.0
 13
1.0
 23
1.0
340
0
 70
     7
280
     1
281
    50
282
    50
283
     0
360
0
 71
     2
 91
        5
 14
-0.5
 24
0.5
 14
0.5
 24
0.5
 14
0.5
 24
0.451899952467
 14
-0.5
 24
0.451899952467
 14
-0.5
 24
0.5
  0
TEXT
  5
1A6
330
170
100
AcDbEntity
  8
PROFILE
  6
AUSGEZOGEN
 62
     7
420
 16777215
370
    18
100
AcDbText
 10
269.46448011427
 20
-97.453728396131
 30
0.0
 40
3.5
  1
Cut steel size @ 1.750"L  X  1.750"W
 41
1.438505465835
  7
Arial
 72
     5
 11
385.888481486131
 21
-97.453728396131
 31
0.0
100
AcDbText
  0
INSERT
  5
1B5
330
170
100
AcDbEntity
  8
0
100
AcDbBlockReference
  2
DimBlk_nNn03
 10
0.0
 20
0.0
 30
0.0
  0
INSERT
  5
1C4
330
170
100
AcDbEntity
  8
0
100
AcDbBlockReference
  2
DimBlk_nNn04
 10
0.0
 20
0.0
 30
0.0
  0
ARC
  5
1C5
330
170
100
AcDbEntity
  8
PROFILE
  6
AUSGEZOGEN
 62
     3
420
    65280
370
    18
100
AcDbCircle
 10
297.544102093162
 20
-29.976464675757
 30
0.0
 40
1.016
100
AcDbArc
 50
189.999999999998
 51
270.0
  0
LINE
  5
1C6
330
170
100
AcDbEntity
  8
PROFILE
  6
AUSGEZOGEN
 62
     3
420
    65280
370
    18
100
AcDbLine
 10
292.302756185612
 20
-30.992464675757
 30
0.0
 11
266.859066068791
 21
-30.992464675757
 31
0.0
  0
LINE
  5
1C7
330
170
100
AcDbEntity
  8
PROFILE
  6
AUSGEZOGEN
 62
     3
420
    65280
370
    18
100
AcDbLine
 10
295.239168949004
 20
-27.724154012044
 30
0.0
 11
293.731572762238
 21
-27.724154012044
 31
0.0
  0
LINE
  5
1C8
330
170
100
AcDbEntity
  8
PROFILE
  6
AUSGEZOGEN
 62
     3
420
    65280
370
    18
100
AcDbLine
 10
292.302756185612
 20
-30.992464675757
 30
0.0
 11
292.731008085178
 21
-28.563727463535
 31
0.0
  0
ARC
  5
1C9
330
170
100
AcDbEntity
  8
PROFILE
  6
AUSGEZOGEN
 62
     3
420
    65280
370
    18
100
AcDbCircle
 10
293.731572762238
 20
-28.740154012044
 30
0.0
 40
1.016
100
AcDbArc
 50
90.0
 51
169.999999999999
  0
LINE
  5
1CA
330
170
100
AcDbEntity
  8
PROFILE
  6
AUSGEZOGEN
 62
     3
420
    65280
370
    18
100
AcDbLine
 10
296.23710929681
 20
-28.549442024427
 30
0.0
 11
296.543537416102
 21
-30.152891224267
 31
0.0
  0
ARC
  5
1CB
330
170
100
AcDbEntity
  8
PROFILE
  6
AUSGEZOGEN
 62
     3
420
    65280
370
    18
100
AcDbCircle
 10
295.239168949004
 20
-28.740154012044
 30
0.0
 40
1.016
100
AcDbArc
 50
10.819093691829
 51
90.0
  0
INSERT
  5
1DA
330
170
100
AcDbEntity
  8
0
100
AcDbBlockReference
  2
DimBlk_nNn05
 10
0.0
 20
0.0
 30
0.0
  0
LINE
  5
1DB
330
170
100
AcDbEntity
  8
PROFILE
  6
AUSGEZOGEN
 62
     3
420
    65280
370
    18
100
AcDbLine
 10
360.596684669086
 20
-30.992464675757
 30
0.0
 11
359.173072934648
 21
-30.992464675757
 31
0.0
  0
LINE
  5
1DC
330
170
100
AcDbEntity
  8
PROFILE
  6
AUSGEZOGEN
 62
     3
420
    65280
370
    18
100
AcDbLine
 10
387.509066068791
 20
-27.817464675757
 30
0.0
 11
362.009048058111
 21
-27.817464675757
 31
0.0
  0
ARC
  5
1DD
330
170
100
AcDbEntity
  8
PROFILE
  6
AUSGEZOGEN
 62
     3
420
    65280
370
    18
100
AcDbCircle
 10
359.173072934648
 20
-29.976464675757
 30
0.0
 40
1.016
100
AcDbArc
 50
189.999999999998
 51
270.0
  0
LINE
  5
1DE
330
170
100
AcDbEntity
  8
PROFILE
  6
AUSGEZOGEN
 62
     3
420
    65280
370
    18
100
AcDbLine
 10
353.931727027098
 20
-30.992464675757
 30
0.0
 11
327.26800020073
 21
-30.992464675757
 31
0.0
  0
LINE
  5
1DF
330
170
100
AcDbEntity
  8
PROFILE
  6
AUSGEZOGEN
 62
     3
420
    65280
370
    18
100
AcDbLine
 10
356.86813979049
 20
-27.724154012044
 30
0.0
 11
355.360543603724
 21
-27.724154012044
 31
0.0
  0
LINE
  5
1E0
330
170
100
AcDbEntity
  8
PROFILE
  6
AUSGEZOGEN
 62
     3
420
    65280
370
    18
100
AcDbLine
 10
353.931727027098
 20
-30.992464675757
 30
0.0
 11
354.359978926664
 21
-28.563727463535
 31
0.0
  0
ARC
  5
1E1
330
170
100
AcDbEntity
  8
PROFILE
  6
AUSGEZOGEN
 62
     3
420
    65280
370
    18
100
AcDbCircle
 10
355.360543603724
 20
-28.740154012044
 30
0.0
 40
1.016
100
AcDbArc
 50
90.0
 51
169.999999999999
  0
LINE
  5
1E2
330
170
100
AcDbEntity
  8
PROFILE
  6
AUSGEZOGEN
 62
     3
420
    65280
370
    18
100
AcDbLine
 10
357.866080138296
 20
-28.549442024427
 30
0.0
 11
358.172508257588
 21
-30.152891224267
 31
0.0
  0
ARC
  5
1E3
330
170
100
AcDbEntity
  8
PROFILE
  6
AUSGEZOGEN
 62
     3
420
    65280
370
    18
100
AcDbCircle
 10
356.86813979049
 20
-28.740154012044
 30
0.0
 40
1.016
100
AcDbArc
 50
10.819093691829
 51
90.0
  0
INSERT
  5
1F2
330
170
100
AcDbEntity
  8
0
100
AcDbBlockReference
  2
DimBlk_nNn06
 10
0.0
 20
0.0
 30
0.0
  0
LINE
  5
1F3
330
170
100
AcDbEntity
  8
PROFILE
  6
AUSGEZOGEN
 62
     3
420
    65280
370
    18
100
AcDbLine
 10
362.009048058111
 20
-27.817464675757
 30
0.0
 11
361.597249346146
 21
-30.152891224267
 31
0.0
  0
ARC
  5
1F4
330
170
100
AcDbEntity
  8
PROFILE
  6
AUSGEZOGEN
 62
     3
420
    65280
370
    18
100
AcDbCircle
 10
360.596684669086
 20
-29.976464675757
 30
0.0
 40
1.016
100
AcDbArc
 50
270.0
 51
350.000000000001
  0
INSERT
  5
203
330
170
100
AcDbEntity
  8
0
100
AcDbBlockReference
  2
DimBlk_nNn07
 10
0.0
 20
0.0
 30
0.0
  0
LINE
  5
204
330
170
100
AcDbEntity
  8
PROFILE
  6
AUSGEZOGEN
 62
     3
420
    65280
370
    18
100
AcDbLine
 10
300.380077216625
 20
-27.817464675757
 30
0.0
 11
299.96827850466
 21
-30.152891224267
 31
0.0
  0
ARC
  5
205
330
170
100
AcDbEntity
  8
PROFILE
  6
AUSGEZOGEN
 62
     3
420
    65280
370
    18
100
AcDbCircle
 10
298.9677138276
 20
-29.976464675757
 30
0.0
 40
1.016
100
AcDbArc
 50
270.0
 51
350.000000000001
  0
INSERT
  5
214
330
170
100
AcDbEntity
  8
0
100
AcDbBlockReference
  2
DimBlk_nNn08
 10
0.0
 20
0.0
 30
0.0
  0
LINE
  5
215
330
170
100
AcDbEntity
  8
PROFILE
  6
AUSGEZOGEN
 62
    16
420
  8388608
370
    18
100
AcDbLine
 10
287.98227980448
 20
33.666614876744
 30
0.0
 11
361.00727980448
 21
33.666614876744
 31
0.0
  0
LINE
  5
216
330
170
100
AcDbEntity
  8
PROFILE
  6
AUSGEZOGEN
 62
    16
420
  8388608
370
    18
100
AcDbLine
 10
284.80727980448
 20
52.708044035258
 30
0.0
 11
357.83227980448
 21
52.708044035258
 31
0.0
  0
LINE
  5
217
330
170
100
AcDbEntity
  8
PROFILE
  6
AUSGEZOGEN
 62
    16
420
  8388608
370
    18
100
AcDbLine
 10
284.80727980448
 20
40.589196276449
 30
0.0
 11
284.80727980448
 21
42.012808010887
 31
0.0
  0
LINE
  5
218
330
170
100
AcDbEntity
  8
PROFILE
  6
AUSGEZOGEN
 62
    16
420
  8388608
370
    18
100
AcDbLine
 10
287.98227980448
 20
33.666614876744
 30
0.0
 11
287.98227980448
 21
39.176832887424
 31
0.0
  0
ARC
  5
219
330
170
100
AcDbEntity
  8
PROFILE
  6
AUSGEZOGEN
 62
    16
420
  8388608
370
    18
100
AcDbCircle
 10
285.82327980448
 20
42.012808010887
 30
0.0
 40
1.01600000000002
100
AcDbArc
 50
99.999999999996
 51
180.0
  0
LINE
  5
21A
330
170
100
AcDbEntity
  8
PROFILE
  6
AUSGEZOGEN
 62
    16
420
  8388608
370
    18
100
AcDbLine
 10
284.80727980448
 20
47.254153918437
 30
0.0
 11
284.80727980448
 21
52.708044035258
 31
0.0
  0
LINE
  5
21B
330
170
100
AcDbEntity
  8
PROFILE
  6
AUSGEZOGEN
 62
    16
420
  8388608
370
    18
100
AcDbLine
 10
288.075590468193
 20
44.317741155046
 30
0.0
 11
288.075590468193
 21
45.825337341811
 31
0.0
  0
LINE
  5
21C
330
170
100
AcDbEntity
  8
PROFILE
  6
AUSGEZOGEN
 62
    16
420
  8388608
370
    18
100
AcDbLine
 10
284.80727980448
 20
47.254153918437
 30
0.0
 11
287.236017016703
 21
46.825902018872
 31
0.0
  0
ARC
  5
21D
330
170
100
AcDbEntity
  8
PROFILE
  6
AUSGEZOGEN
 62
    16
420
  8388608
370
    18
100
AcDbCircle
 10
287.059590468193
 20
45.825337341811
 30
0.0
 40
1.01600000000002
100
AcDbArc
 50
0.0
 51
80.0
  0
LINE
  5
21E
330
170
100
AcDbEntity
  8
PROFILE
  6
AUSGEZOGEN
 62
    16
420
  8388608
370
    18
100
AcDbLine
 10
287.25030245581
 20
43.31980080724
 30
0.0
 11
285.646853255971
 21
43.013372687947
 31
0.0
  0
ARC
  5
21F
330
170
100
AcDbEntity
  8
PROFILE
  6
AUSGEZOGEN
 62
    16
420
  8388608
370
    18
100
AcDbCircle
 10
287.059590468193
 20
44.317741155046
 30
0.0
 40
1.01600000000002
100
AcDbArc
 50
280.819093691829
 51
0.0
  0
LINE
  5
220
330
170
100
AcDbEntity
  8
PROFILE
  6
AUSGEZOGEN
 62
    16
420
  8388608
370
    18
100
AcDbLine
 10
287.98227980448
 20
39.176832887424
 30
0.0
 11
285.646853255971
 21
39.588631599389
 31
0.0
  0
ARC
  5
221
330
170
100
AcDbEntity
  8
PROFILE
  6
AUSGEZOGEN
 62
    16
420
  8388608
370
    18
100
AcDbCircle
 10
285.82327980448
 20
40.589196276449
 30
0.0
 40
1.01600000000002
100
AcDbArc
 50
180.0
 51
260.0
  0
LINE
  5
222
330
170
100
AcDbEntity
  8
PROFILE
  6
AUSGEZOGEN
 62
    16
420
  8388608
370
    18
100
AcDbLine
 10
361.00727980448
 20
45.785462635553
 30
0.0
 11
361.00727980448
 21
44.361850901115
 31
0.0
  0
LINE
  5
223
330
170
100
AcDbEntity
  8
PROFILE
  6
AUSGEZOGEN
 62
    16
420
  8388608
370
    18
100
AcDbLine
 10
357.83227980448
 20
52.708044035258
 30
0.0
 11
357.83227980448
 21
47.197826024578
 31
0.0
  0
ARC
  5
224
330
170
100
AcDbEntity
  8
PROFILE
  6
AUSGEZOGEN
 62
    16
420
  8388608
370
    18
100
AcDbCircle
 10
359.99127980448
 20
44.361850901115
 30
0.0
 40
1.015999999999963
100
AcDbArc
 50
279.999999999997
 51
0.0
  0
LINE
  5
225
330
170
100
AcDbEntity
  8
PROFILE
  6
AUSGEZOGEN
 62
    16
420
  8388608
370
    18
100
AcDbLine
 10
361.00727980448
 20
39.120504993565
 30
0.0
 11
361.00727980448
 21
33.666614876744
 31
0.0
  0
LINE
  5
226
330
170
100
AcDbEntity
  8
PROFILE
  6
AUSGEZOGEN
 62
    16
420
  8388608
370
    18
100
AcDbLine
 10
357.738969140768
 20
42.056917756957
 30
0.0
 11
357.738969140768
 21
40.549321570191
 31
0.0
  0
LINE
  5
227
330
170
100
AcDbEntity
  8
PROFILE
  6
AUSGEZOGEN
 62
    16
420
  8388608
370
    18
100
AcDbLine
 10
361.00727980448
 20
39.120504993565
 30
0.0
 11
358.578542592258
 21
39.548756893131
 31
0.0
  0
ARC
  5
228
330
170
100
AcDbEntity
  8
PROFILE
  6
AUSGEZOGEN
 62
    16
420
  8388608
370
    18
100
AcDbCircle
 10
358.754969140768
 20
40.549321570191
 30
0.0
 40
1.015999999999963
100
AcDbArc
 50
180.0
 51
259.999999999997
  0
LINE
  5
229
330
170
100
AcDbEntity
  8
PROFILE
  6
AUSGEZOGEN
 62
    16
420
  8388608
370
    18
100
AcDbLine
 10
358.564257153151
 20
43.054858104763
 30
0.0
 11
360.16770635299
 21
43.361286224055
 31
0.0
  0
ARC
  5
22A
330
170
100
AcDbEntity
  8
PROFILE
  6
AUSGEZOGEN
 62
    16
420
  8388608
370
    18
100
AcDbCircle
 10
358.754969140768
 20
42.056917756957
 30
0.0
 40
1.015999999999963
100
AcDbArc
 50
100.819093691829
 51
180.0
  0
LINE
  5
22B
330
170
100
AcDbEntity
  8
PROFILE
  6
AUSGEZOGEN
 62
    16
420
  8388608
370
    18
100
AcDbLine
 10
357.83227980448
 20
47.197826024578
 30
0.0
 11
360.16770635299
 21
46.786027312613
 31
0.0
  0
ARC
  5
22C
330
170
100
AcDbEntity
  8
PROFILE
  6
AUSGEZOGEN
 62
    16
420
  8388608
370
    18
100
AcDbCircle
 10
359.99127980448
 20
45.785462635553
 30
0.0
 40
1.015999999999963
100
AcDbArc
 50
0.0
 51
80.000000000003
  0
LINE
  5
22D
330
170
100
AcDbEntity
  8
PROFILE
  6
AUSGEZOGEN
 62
    16
420
  8388608
370
    18
100
AcDbLine
 10
361.00727980448
 20
33.666614876744
 30
0.0
 11
380.05727980448
 21
33.666614876744
 31
0.0
  0
LINE
  5
22E
330
170
100
AcDbEntity
  8
PROFILE
  6
AUSGEZOGEN
 62
    16
420
  8388608
370
    18
100
AcDbLine
 10
357.83227980448
 20
52.708044035258
 30
0.0
 11
380.05727980448
 21
52.708044035258
 31
0.0
  0
LINE
  5
22F
330
170
100
AcDbEntity
  8
PROFILE
  6
AUSGEZOGEN
 62
    16
420
  8388608
370
    18
100
AcDbLine
 10
357.83227980448
 20
40.589196276449
 30
0.0
 11
357.83227980448
 21
42.012808010887
 31
0.0
  0
ARC
  5
230
330
170
100
AcDbEntity
  8
PROFILE
  6
AUSGEZOGEN
 62
    16
420
  8388608
370
    18
100
AcDbCircle
 10
358.84827980448
 20
42.012808010887
 30
0.0
 40
1.015999999999963
100
AcDbArc
 50
99.999999999997
 51
180.0
  0
LINE
  5
231
330
170
100
AcDbEntity
  8
PROFILE
  6
AUSGEZOGEN
 62
    16
420
  8388608
370
    18
100
AcDbLine
 10
361.100590468193
 20
44.317741155046
 30
0.0
 11
361.100590468193
 21
45.825337341811
 31
0.0
  0
LINE
  5
232
330
170
100
AcDbEntity
  8
PROFILE
  6
AUSGEZOGEN
 62
    16
420
  8388608
370
    18
100
AcDbLine
 10
357.83227980448
 20
47.254153918437
 30
0.0
 11
360.261017016703
 21
46.825902018872
 31
0.0
  0
ARC
  5
233
330
170
100
AcDbEntity
  8
PROFILE
  6
AUSGEZOGEN
 62
    16
420
  8388608
370
    18
100
AcDbCircle
 10
360.084590468193
 20
45.825337341811
 30
0.0
 40
1.015999999999963
100
AcDbArc
 50
0.0
 51
79.999999999997
  0
LINE
  5
234
330
170
100
AcDbEntity
  8
PROFILE
  6
AUSGEZOGEN
 62
    16
420
  8388608
370
    18
100
AcDbLine
 10
360.27530245581
 20
43.31980080724
 30
0.0
 11
358.671853255971
 21
43.013372687947
 31
0.0
  0
ARC
  5
235
330
170
100
AcDbEntity
  8
PROFILE
  6
AUSGEZOGEN
 62
    16
420
  8388608
370
    18
100
AcDbCircle
 10
360.084590468193
 20
44.317741155046
 30
0.0
 40
1.015999999999963
100
AcDbArc
 50
280.819093691829
 51
0.0
  0
LINE
  5
236
330
170
100
AcDbEntity
  8
PROFILE
  6
AUSGEZOGEN
 62
    16
420
  8388608
370
    18
100
AcDbLine
 10
361.00727980448
 20
39.176832887424
 30
0.0
 11
358.671853255971
 21
39.588631599389
 31
0.0
  0
ARC
  5
237
330
170
100
AcDbEntity
  8
PROFILE
  6
AUSGEZOGEN
 62
    16
420
  8388608
370
    18
100
AcDbCircle
 10
358.84827980448
 20
40.589196276449
 30
0.0
 40
1.015999999999963
100
AcDbArc
 50
180.0
 51
260.000000000003
  0
LINE
  5
238
330
170
100
AcDbEntity
  8
PROFILE
  6
AUSGEZOGEN
 62
    16
420
  8388608
370
    18
100
AcDbLine
 10
268.93227980448
 20
33.666614876744
 30
0.0
 11
287.98227980448
 21
33.666614876744
 31
0.0
  0
LINE
  5
239
330
170
100
AcDbEntity
  8
PROFILE
  6
AUSGEZOGEN
 62
    16
420
  8388608
370
    18
100
AcDbLine
 10
268.93227980448
 20
52.708044035258
 30
0.0
 11
284.80727980448
 21
52.708044035258
 31
0.0
  0
LINE
  5
23A
330
170
100
AcDbEntity
  8
PROFILE
  6
AUSGEZOGEN
 62
    16
420
  8388608
370
    18
100
AcDbLine
 10
287.98227980448
 20
45.785462635553
 30
0.0
 11
287.98227980448
 21
44.361850901115
 31
0.0
  0
ARC
  5
23B
330
170
100
AcDbEntity
  8
PROFILE
  6
AUSGEZOGEN
 62
    16
420
  8388608
370
    18
100
AcDbCircle
 10
286.96627980448
 20
44.361850901115
 30
0.0
 40
1.01600000000002
100
AcDbArc
 50
279.999999999996
 51
0.0
  0
LINE
  5
23C
330
170
100
AcDbEntity
  8
PROFILE
  6
AUSGEZOGEN
 62
    16
420
  8388608
370
    18
100
AcDbLine
 10
284.713969140768
 20
42.056917756957
 30
0.0
 11
284.713969140768
 21
40.549321570191
 31
0.0
  0
LINE
  5
23D
330
170
100
AcDbEntity
  8
PROFILE
  6
AUSGEZOGEN
 62
    16
420
  8388608
370
    18
100
AcDbLine
 10
287.98227980448
 20
39.120504993565
 30
0.0
 11
285.553542592258
 21
39.548756893131
 31
0.0
  0
ARC
  5
23E
330
170
100
AcDbEntity
  8
PROFILE
  6
AUSGEZOGEN
 62
    16
420
  8388608
370
    18
100
AcDbCircle
 10
285.729969140768
 20
40.549321570191
 30
0.0
 40
1.01600000000002
100
AcDbArc
 50
180.0
 51
260.0
  0
LINE
  5
23F
330
170
100
AcDbEntity
  8
PROFILE
  6
AUSGEZOGEN
 62
    16
420
  8388608
370
    18
100
AcDbLine
 10
285.539257153151
 20
43.054858104763
 30
0.0
 11
287.14270635299
 21
43.361286224055
 31
0.0
  0
ARC
  5
240
330
170
100
AcDbEntity
  8
PROFILE
  6
AUSGEZOGEN
 62
    16
420
  8388608
370
    18
100
AcDbCircle
 10
285.729969140768
 20
42.056917756957
 30
0.0
 40
1.01600000000002
100
AcDbArc
 50
100.819093691829
 51
180.0
  0
LINE
  5
241
330
170
100
AcDbEntity
  8
PROFILE
  6
AUSGEZOGEN
 62
    16
420
  8388608
370
    18
100
AcDbLine
 10
284.80727980448
 20
47.197826024578
 30
0.0
 11
287.14270635299
 21
46.786027312613
 31
0.0
  0
ARC
  5
242
330
170
100
AcDbEntity
  8
PROFILE
  6
AUSGEZOGEN
 62
    16
420
  8388608
370
    18
100
AcDbCircle
 10
286.96627980448
 20
45.785462635553
 30
0.0
 40
1.01600000000002
100
AcDbArc
 50
0.0
 51
80.0
  0
LINE
  5
243
330
170
100
AcDbEntity
  8
PROFILE
  6
AUSGEZOGEN
 62
    16
420
  8388608
370
    18
100
AcDbLine
 10
268.93227980448
 20
33.666614876744
 30
0.0
 11
287.98227980448
 21
33.666614876744
 31
0.0
  0
LINE
  5
244
330
170
100
AcDbEntity
  8
PROFILE
  6
AUSGEZOGEN
 62
    16
420
  8388608
370
    18
100
AcDbLine
 10
291.878347616346
 20
59.779111847124
 30
0.0
 11
364.903347616346
 21
59.779111847124
 31
0.0
  0
LINE
  5
245
330
170
100
AcDbEntity
  8
PROFILE
  6
AUSGEZOGEN
 62
    16
420
  8388608
370
    18
100
AcDbLine
 10
364.903347616346
 20
59.779111847124
 30
0.0
 11
387.128347616346
 21
59.779111847124
 31
0.0
  0
LINE
  5
246
330
170
100
AcDbEntity
  8
PROFILE
  6
AUSGEZOGEN
 62
    16
420
  8388608
370
    18
100
AcDbLine
 10
276.003347616346
 20
59.779111847124
 30
0.0
 11
291.878347616346
 21
59.779111847124
 31
0.0
  0
LINE
  5
247
330
170
100
AcDbEntity
  8
PROFILE
  6
AUSGEZOGEN
 62
    16
420
  8388608
370
    18
100
AcDbLine
 10
276.003347616346
 20
59.779111847124
 30
0.0
 11
268.93227980448
 21
52.708044035258
 31
0.0
  0
LINE
  5
248
330
170
100
AcDbEntity
  8
PROFILE
  6
AUSGEZOGEN
 62
    16
420
  8388608
370
    18
100
AcDbLine
 10
291.878347616346
 20
59.779111847124
 30
0.0
 11
284.80727980448
 21
52.708044035258
 31
0.0
  0
LINE
  5
249
330
170
100
AcDbEntity
  8
PROFILE
  6
AUSGEZOGEN
 62
    16
420
  8388608
370
    18
100
AcDbLine
 10
364.903347616346
 20
59.779111847124
 30
0.0
 11
357.83227980448
 21
52.708044035258
 31
0.0
  0
LINE
  5
24A
330
170
100
AcDbEntity
  8
PROFILE
  6
AUSGEZOGEN
 62
    16
420
  8388608
370
    18
100
AcDbLine
 10
387.128347616346
 20
59.779111847124
 30
0.0
 11
380.05727980448
 21
52.708044035258
 31
0.0
  0
LWPOLYLINE
  5
24B
330
170
100
AcDbEntity
  8
PROFILE
  6
AUSGEZOGEN
 62
    16
420
  8388608
370
    18
100
AcDbPolyline
 90
       14
 70
     0
 43
0.0
 10
268.93227980448
 20
52.708044035258
 10
268.93227980448
 20
50.387535959569
 10
271.43227980448
 20
49.717662978492
 10
266.43227980448
 20
48.377917016336
 10
268.93227980448
 20
47.708044035258
 10
268.93227980448
 20
45.387535959569
 10
271.43227980448
 20
44.717662978492
 10
266.43227980448
 20
43.377917016336
 10
268.93227980448
 20
42.708044035258
 10
268.93227980448
 20
40.387535959569
 10
271.43227980448
 20
39.717662978492
 10
266.43227980448
 20
38.377917016336
 10
268.93227980448
 20
37.708044035258
 10
268.93227980448
 20
33.666614876744
  0
LWPOLYLINE
  5
24C
330
170
100
AcDbEntity
  8
PROFILE
  6
AUSGEZOGEN
 62
    16
420
  8388608
370
    18
100
AcDbPolyline
 90
       14
 70
     0
 43
0.0
 10
380.05727980448
 20
52.708044035258
 10
380.05727980448
 20
50.387535959569
 10
382.55727980448
 20
49.717662978492
 10
377.55727980448
 20
48.377917016336
 10
380.05727980448
 20
47.708044035258
 10
380.05727980448
 20
45.387535959569
 10
382.55727980448
 20
44.717662978492
 10
377.55727980448
 20
43.377917016336
 10
380.05727980448
 20
42.708044035258
 10
380.05727980448
 20
40.387535959569
 10
382.55727980448
 20
39.717662978492
 10
377.55727980448
 20
38.377917016336
 10
380.05727980448
 20
37.708044035258
 10
380.05727980448
 20
33.666614876744
  0
LWPOLYLINE
  5
24D
330
170
100
AcDbEntity
  8
PROFILE
  6
AUSGEZOGEN
 62
    16
420
  8388608
370
    18
100
AcDbPolyline
 90
       14
 70
     0
 43
0.0
 10
387.128347616346
 20
59.779111847124
 10
387.128347616346
 20
57.458603771435
 10
389.628347616346
 20
56.788730790357
 10
384.628347616346
 20
55.448984828201
 10
387.128347616346
 20
54.779111847124
 10
387.128347616346
 20
52.458603771435
 10
389.628347616346
 20
51.788730790357
 10
384.628347616346
 20
50.448984828201
 10
387.128347616346
 20
49.779111847124
 10
387.128347616346
 20
47.458603771435
 10
389.628347616346
 20
46.788730790357
 10
384.628347616346
 20
45.448984828201
 10
387.128347616346
 20
44.779111847124
 10
387.128347616346
 20
40.73768268861
  0
LINE
  5
24E
330
170
100
AcDbEntity
  8
PROFILE
  6
AUSGEZOGEN
 62
    16
420
  8388608
370
    18
100
AcDbLine
 10
387.128347616346
 20
40.73768268861
 30
0.0
 11
380.05727980448
 21
33.666614876744
 31
0.0
  0
HATCH
  5
24F
330
170
100
AcDbEntity
  8
PROFILE
  6
AUSGEZOGEN
 62
     4
420
    65535
370
    18
100
AcDbHatch
 10
0.0
 20
0.0
 30
0.0
210
0.0
220
0.0
230
1.0
  2
MegaCAD_ansi36
 70
     0
 71
     0
 91
        1
 92
        2
 72
     1
 73
     1
 93
       48
 10
358.578542592258
 20
39.54875689313067
 42
-0.0765069055043894
 10
358.2858325497209
 20
39.64811856368201
 42
-0.0765069055043742
 10
358.0365486510822
 20
39.83090108050554
 42
-0.0984914033571581
 10
357.8163075357362
 20
40.16051520290814
 42
-0.0984914033571633
 10
357.7389691407677
 20
40.54932157019107
 42
0.0
 10
357.7389691407676
 20
42.05691775695669
 42
-0.0984914033571578
 10
357.8163075357362
 20
42.44572412423963
 42
-0.0984914033571581
 10
358.0365486510822
 20
42.77533824664222
 42
-0.0747097043008204
 10
358.2794028435047
 20
42.9547444088821
 42
-0.074709704300826
 10
358.5642571531508
 20
43.05485810476273
 42
0.0
 10
360.1677063529899
 20
43.36128622405489
 42
0.0765069055043926
 10
360.4604163955271
 20
43.46064789460622
 42
0.0765069055043973
 10
360.7097002941658
 20
43.64343041142978
 42
0.0984914033571581
 10
360.9299414095118
 20
43.97304453383237
 42
0.0984914033571633
 10
361.0072798044803
 20
44.3618509011153
 42
0.0
 10
361.0072798044804
 20
45.78546263555285
 42
0.0984914033571578
 10
360.9299414095118
 20
46.17426900283578
 42
0.0984914033571581
 10
360.7097002941658
 20
46.50388312523837
 42
0.0765069055043728
 10
360.4604163955271
 20
46.6866656420619
 42
0.0765069055043885
 10
360.16770635299
 20
46.78602731261324
 42
0.0
 10
357.8322798044803
 20
47.19782602457832
 42
0.0
 10
357.8322798044803
 20
52.70804403525818
 42
0.0
 10
284.8072798044803
 20
52.70804403525818
 42
0.0
 10
284.8072798044803
 20
47.25415391843711
 42
0.0
 10
287.2360170167026
 20
46.82590201887158
 42
-0.076506905504391
 10
287.5287270592398
 20
46.72654034832025
 42
-0.076506905504378
 10
287.7780109578786
 20
46.54375783149671
 42
-0.0984914033571688
 10
287.9982520732245
 20
46.21414370909411
 42
-0.0984914033571656
 10
288.0755904681931
 20
45.82533734181118
 42
0.0
 10
288.0755904681931
 20
44.31774115504555
 42
-0.0984914033571656
 10
287.9982520732245
 20
43.92893478776262
 42
-0.0984914033571688
 10
287.7780109578786
 20
43.59932066536003
 42
-0.074709704300812
 10
287.535156765456
 20
43.41991450312015
 42
-0.074709704300829
 10
287.2503024558099
 20
43.31980080723952
 42
0.0
 10
285.6468532559708
 20
43.01337268794737
 42
0.0765069055043929
 10
285.3541432134335
 20
42.91401101739603
 42
0.0765069055043903
 10
285.1048593147947
 20
42.73122850057247
 42
0.0984914033571688
 10
284.8846181994488
 20
42.40161437816987
 42
0.0984914033571656
 10
284.8072798044803
 20
42.01280801088694
 42
0.0
 10
284.8072798044803
 20
40.5891962764494
 42
0.0984914033571683
 10
284.8846181994488
 20
40.20038990916647
 42
0.0984914033571688
 10
285.1048593147947
 20
39.87077578676387
 42
0.076506905504378
 10
285.3541432134335
 20
39.68799326994033
 42
0.0765069055043924
 10
285.6468532559707
 20
39.588631599389
 42
0.0
 10
287.9822798044804
 20
39.17683288742393
 42
0.0
 10
287.9822798044804
 20
33.66661487674406
 42
0.0
 10
361.0072798044804
 20
33.66661487674406
 42
0.0
 10
361.0072798044804
 20
39.12050499356513
 42
0.0
 97
        0
 75
     0
 76
     1
 52
0.0
 41
1.0
 77
     0
 78
     1
 53
45.0
 43
0.0
 44
0.0
 45
0.6629126073623884
 46
2.430679560328757
 79
     4
 49
3.125
 49
-0.625
 49
0.0
 49
-0.625
 98
        0
  0
HATCH
  5
250
330
170
100
AcDbEntity
  8
PROFILE
  6
AUSGEZOGEN
 62
    16
420
  8388608
370
    18
100
AcDbHatch
 10
0.0
 20
0.0
 30
0.0
210
0.0
220
0.0
230
1.0
  2
MegaCAD_ansi36
 70
     0
 71
     0
 91
        1
 92
        2
 72
     1
 73
     1
 93
       79
 10
357.8322798044803
 20
47.25415391843711
 42
0.0
 10
360.2610170167027
 20
46.82590201887161
 42
-0.0765069055043885
 10
360.5537270592398
 20
46.72654034832024
 42
-0.0765069055043746
 10
360.8030109578785
 20
46.54375783149671
 42
-0.0984914033571581
 10
361.0232520732245
 20
46.21414370909411
 42
-0.0984914033571633
 10
361.100590468193
 20
45.82533734181118
 42
0.0
 10
361.100590468193
 20
44.31774115504555
 42
-0.0984914033571633
 10
361.0232520732245
 20
43.92893478776262
 42
-0.0984914033571581
 10
360.8030109578785
 20
43.59932066536003
 42
-0.0747097043008204
 10
360.560156765456
 20
43.41991450312015
 42
-0.074709704300826
 10
360.2753024558099
 20
43.31980080723952
 42
0.0
 10
358.6718532559707
 20
43.01337268794737
 42
0.0765069055043914
 10
358.3791432134335
 20
42.91401101739603
 42
0.0765069055043988
 10
358.1298593147948
 20
42.73122850057247
 42
0.0984914033571581
 10
357.9096181994488
 20
42.40161437816987
 42
0.0984914033571633
 10
357.8322798044803
 20
42.01280801088694
 42
0.0
 10
357.8322798044803
 20
40.5891962764494
 42
0.0984914033571633
 10
357.9096181994488
 20
40.20038990916647
 42
0.0984914033571581
 10
358.1298593147948
 20
39.87077578676387
 42
0.0765069055043973
 10
358.3791432134335
 20
39.68799326994031
 42
0.0765069055043926
 10
358.6718532559707
 20
39.58863159938899
 42
-0.0765069055043926
 10
358.3791432134335
 20
39.68799326994031
 42
-0.0765069055043973
 10
358.1298593147948
 20
39.87077578676387
 42
-0.0984914033571581
 10
357.9096181994488
 20
40.20038990916647
 42
-0.0984914033571633
 10
357.8322798044803
 20
40.5891962764494
 42
0.0
 10
357.8322798044803
 20
42.01280801088694
 42
-0.0984914033571633
 10
357.9096181994488
 20
42.40161437816987
 42
-0.0984914033571581
 10
358.1298593147948
 20
42.73122850057247
 42
-0.0765069055042942
 10
358.3791432134332
 20
42.91401101739584
 42
-0.0765069055042955
 10
358.6718532559699
 20
43.01337268794722
 42
0.0
 10
360.2753024558099
 20
43.31980080723952
 42
0.074709704300826
 10
360.560156765456
 20
43.41991450312015
 42
0.0747097043008204
 10
360.8030109578785
 20
43.59932066536003
 42
0.0984914033571581
 10
361.0232520732245
 20
43.92893478776262
 42
0.0984914033571633
 10
361.100590468193
 20
44.31774115504555
 42
0.0
 10
361.100590468193
 20
45.82533734181118
 42
0.0984914033571633
 10
361.0232520732245
 20
46.21414370909411
 42
0.0984914033571581
 10
360.8030109578785
 20
46.54375783149671
 42
0.0765069055043728
 10
360.5537270592398
 20
46.72654034832023
 42
0.0765069055043885
 10
360.2610170167027
 20
46.82590201887157
 42
0.0
 10
357.8322798044803
 20
47.25415391843711
 42
0.0
 10
357.8322798044803
 20
47.19782602457832
 42
0.0
 10
360.1677063529899
 20
46.78602731261329
 42
-0.0765069055043918
 10
360.4604163955271
 20
46.68666564206193
 42
-0.0765069055044002
 10
360.7097002941658
 20
46.50388312523837
 42
-0.0984914033571581
 10
360.9299414095118
 20
46.17426900283578
 42
-0.0984914033571633
 10
361.0072798044803
 20
45.78546263555285
 42
0.0
 10
361.0072798044804
 20
44.3618509011153
 42
-0.0984914033571578
 10
360.9299414095118
 20
43.97304453383237
 42
-0.0984914033571581
 10
360.7097002941658
 20
43.64343041142978
 42
-0.0765069055041121
 10
360.4604163955281
 20
43.46064789460675
 42
-0.076506905504106
 10
360.1677063529921
 20
43.36128622405529
 42
0.0
 10
358.5642571531508
 20
43.05485810476273
 42
0.0747097043008275
 10
358.2794028435047
 20
42.9547444088821
 42
0.0747097043008204
 10
358.0365486510822
 20
42.77533824664222
 42
0.0984914033571581
 10
357.8163075357362
 20
42.44572412423963
 42
0.0984914033571633
 10
357.7389691407677
 20
42.05691775695669
 42
0.0
 10
357.7389691407676
 20
40.54932157019107
 42
0.0984914033571578
 10
357.8163075357362
 20
40.16051520290814
 42
0.0984914033571581
 10
358.0365486510822
 20
39.83090108050554
 42
0.0765069055043742
 10
358.2858325497209
 20
39.64811856368201
 42
0.0765069055043899
 10
358.578542592258
 20
39.54875689313068
 42
0.0
 10
361.0072798044804
 20
39.12050499356513
 42
0.0
 10
361.0072798044804
 20
33.66661487674406
 42
0.0
 10
380.0572798044803
 20
33.66661487674406
 42
0.0
 10
380.0572798044803
 20
37.70804403525818
 42
0.0
 10
377.5572798044803
 20
38.37791701633599
 42
0.0
 10
382.5572798044803
 20
39.7176629784916
 42
0.0
 10
380.0572798044803
 20
40.38753595956941
 42
0.0
 10
380.0572798044803
 20
42.70804403525818
 42
0.0
 10
377.5572798044803
 20
43.37791701633599
 42
0.0
 10
382.5572798044803
 20
44.7176629784916
 42
0.0
 10
380.0572798044803
 20
45.38753595956941
 42
0.0
 10
380.0572798044803
 20
47.70804403525818
 42
0.0
 10
377.5572798044803
 20
48.37791701633599
 42
0.0
 10
382.5572798044803
 20
49.7176629784916
 42
0.0
 10
380.0572798044803
 20
50.38753595956941
 42
0.0
 10
380.0572798044803
 20
52.70804403525818
 42
0.0
 10
357.8322798044803
 20
52.70804403525818
 42
0.0
 97
        0
 75
     0
 76
     1
 52
0.0
 41
1.0
 77
     0
 78
     1
 53
45.0
 43
0.0
 44
0.0
 45
0.6629126073623884
 46
2.430679560328757
 79
     4
 49
3.125
 49
-0.625
 49
0.0
 49
-0.625
 98
        0
  0
HATCH
  5
251
330
170
100
AcDbEntity
  8
PROFILE
  6
AUSGEZOGEN
 62
    16
420
  8388608
370
    18
100
AcDbHatch
 10
0.0
 20
0.0
 30
0.0
210
0.0
220
0.0
230
1.0
  2
MegaCAD_ansi36
 70
     0
 71
     0
 91
        1
 92
        2
 72
     1
 73
     1
 93
       79
 10
287.9822798044804
 20
39.12050499356513
 42
0.0
 10
285.5535425922581
 20
39.54875689313065
 42
-0.0765069055043913
 10
285.2608325497209
 20
39.648118563682
 42
-0.076506905504378
 10
285.0115486510821
 20
39.83090108050554
 42
-0.0984914033571688
 10
284.7913075357362
 20
40.16051520290814
 42
-0.0984914033571656
 10
284.7139691407676
 20
40.54932157019107
 42
0.0
 10
284.7139691407676
 20
42.05691775695669
 42
-0.0984914033571628
 10
284.7913075357362
 20
42.44572412423963
 42
-0.0984914033571688
 10
285.0115486510821
 20
42.77533824664222
 42
-0.074709704300812
 10
285.2544028435047
 20
42.9547444088821
 42
-0.074709704300829
 10
285.5392571531508
 20
43.05485810476273
 42
0.0
 10
287.1427063529898
 20
43.36128622405489
 42
0.0765069055043926
 10
287.4354163955271
 20
43.46064789460622
 42
0.0765069055043903
 10
287.6847002941659
 20
43.64343041142978
 42
0.0984914033571688
 10
287.9049414095118
 20
43.97304453383237
 42
0.0984914033571656
 10
287.9822798044803
 20
44.3618509011153
 42
0.0
 10
287.9822798044804
 20
45.78546263555285
 42
0.0984914033571628
 10
287.9049414095118
 20
46.17426900283578
 42
0.0984914033571688
 10
287.6847002941659
 20
46.50388312523837
 42
0.076506905504378
 10
287.4354163955271
 20
46.68666564206192
 42
0.0765069055043924
 10
287.1427063529899
 20
46.78602731261325
 42
-0.076506905504391
 10
287.4354163955271
 20
46.68666564206192
 42
-0.076506905504378
 10
287.6847002941659
 20
46.50388312523837
 42
-0.0984914033571688
 10
287.9049414095118
 20
46.17426900283578
 42
-0.0984914033571656
 10
287.9822798044803
 20
45.78546263555285
 42
0.0
 10
287.9822798044804
 20
44.3618509011153
 42
-0.0984914033571628
 10
287.9049414095118
 20
43.97304453383237
 42
-0.0984914033571688
 10
287.6847002941659
 20
43.64343041142978
 42
-0.0765069055041159
 10
287.4354163955281
 20
43.46064789460674
 42
-0.0765069055041091
 10
287.142706352992
 20
43.36128622405528
 42
0.0
 10
285.5392571531508
 20
43.05485810476273
 42
0.074709704300829
 10
285.2544028435047
 20
42.9547444088821
 42
0.074709704300812
 10
285.0115486510821
 20
42.77533824664222
 42
0.0984914033571688
 10
284.7913075357362
 20
42.44572412423963
 42
0.0984914033571656
 10
284.7139691407676
 20
42.05691775695669
 42
0.0
 10
284.7139691407676
 20
40.54932157019107
 42
0.0984914033571628
 10
284.7913075357362
 20
40.16051520290814
 42
0.0984914033571688
 10
285.0115486510821
 20
39.83090108050554
 42
0.0765069055043771
 10
285.2608325497208
 20
39.64811856368201
 42
0.0765069055043775
 10
285.553542592258
 20
39.54875689313067
 42
0.0
 10
287.9822798044804
 20
39.12050499356513
 42
0.0
 10
287.9822798044804
 20
39.17683288742393
 42
0.0
 10
285.6468532559708
 20
39.58863159938898
 42
-0.0765069055043929
 10
285.3541432134335
 20
39.68799326994031
 42
-0.0765069055043903
 10
285.1048593147947
 20
39.87077578676387
 42
-0.0984914033571688
 10
284.8846181994488
 20
40.20038990916647
 42
-0.0984914033571656
 10
284.8072798044803
 20
40.5891962764494
 42
0.0
 10
284.8072798044803
 20
42.01280801088694
 42
-0.0984914033571683
 10
284.8846181994488
 20
42.40161437816987
 42
-0.0984914033571688
 10
285.1048593147947
 20
42.73122850057247
 42
-0.076506905504298
 10
285.3541432134332
 20
42.91401101739586
 42
-0.0765069055042985
 10
285.64685325597
 20
43.01337268794722
 42
0.0
 10
287.2503024558099
 20
43.31980080723952
 42
0.074709704300829
 10
287.535156765456
 20
43.41991450312015
 42
0.074709704300812
 10
287.7780109578786
 20
43.59932066536003
 42
0.0984914033571688
 10
287.9982520732245
 20
43.92893478776262
 42
0.0984914033571656
 10
288.0755904681931
 20
44.31774115504555
 42
0.0
 10
288.0755904681931
 20
45.82533734181118
 42
0.0984914033571656
 10
287.9982520732245
 20
46.21414370909411
 42
0.0984914033571688
 10
287.7780109578786
 20
46.54375783149671
 42
0.0765069055043771
 10
287.5287270592399
 20
46.72654034832023
 42
0.0765069055043775
 10
287.2360170167027
 20
46.82590201887157
 42
0.0
 10
284.8072798044803
 20
47.25415391843711
 42
0.0
 10
284.8072798044803
 20
52.70804403525818
 42
0.0
 10
268.9322798044803
 20
52.70804403525818
 42
0.0
 10
268.9322798044803
 20
50.38753595956941
 42
0.0
 10
271.4322798044803
 20
49.7176629784916
 42
0.0
 10
266.4322798044803
 20
48.37791701633599
 42
0.0
 10
268.9322798044803
 20
47.70804403525818
 42
0.0
 10
268.9322798044803
 20
45.38753595956941
 42
0.0
 10
271.4322798044803
 20
44.7176629784916
 42
0.0
 10
266.4322798044803
 20
43.37791701633599
 42
0.0
 10
268.9322798044803
 20
42.70804403525818
 42
0.0
 10
268.9322798044803
 20
40.38753595956941
 42
0.0
 10
271.4322798044803
 20
39.7176629784916
 42
0.0
 10
266.4322798044803
 20
38.37791701633599
 42
0.0
 10
268.9322798044803
 20
37.70804403525818
 42
0.0
 10
268.9322798044803
 20
33.66661487674406
 42
0.0
 10
287.9822798044804
 20
33.66661487674406
 42
0.0
 97
        0
 75
     0
 76
     1
 52
0.0
 41
1.0
 77
     0
 78
     1
 53
45.0
 43
0.0
 44
0.0
 45
0.6629126073623884
 46
2.430679560328757
 79
     4
 49
3.125
 49
-0.625
 49
0.0
 49
-0.625
 98
        0
  0
WIPEOUT
  5
252
330
170
100
AcDbEntity
  8
PROFILE
  6
AUSGEZOGEN
 62
    16
420
  8388608
370
    18
 92
      308
310
34010000070000000C0000000E000000120000000C00000016000000000000C20C00000014000000010000006C000000070000000400000014C2754D503B7340AE997B2855784440000000000000000048F5C8CA8F2F7540AE997B2855784440000000000000000048F5C8CA8F2F75407B6648F52145474000000000000000
310
0014C2754D503B73407B6648F52145474000000000000000000C0000000E000000100000000C00000016000000000080C284000000060000000500000014C2754D503B7340AE997B2855784440000000000000000048F5C8CA8F2F7540AE997B2855784440000000000000000048F5C8CA8F2F75407B6648F5214547400000
310
00000000000014C2754D503B73407B6648F521454740000000000000000014C2754D503B7340AE997B28557844400000000000000000
100
AcDbWipeout
 90
        0
 10
307.707105121606
 20
40.940098820068
 30
0.0
 11
31.26550037860869
 21
0.0
 31
0.0
 12
0.0
 22
31.26550037860869
 32
0.0
 13
1.0
 23
1.0
340
0
 70
     7
280
     1
281
    50
282
    50
283
     0
360
0
 71
     2
 91
        5
 14
-0.5
 24
0.5
 14
0.5
 24
0.5
 14
0.5
 24
0.320888841305
 14
-0.5
 24
0.320888841305
 14
-0.5
 24
0.5
  0
TEXT
  5
253
330
170
100
AcDbEntity
  8
PROFILE
  6
AUSGEZOGEN
 62
    16
420
  8388608
370
    18
100
AcDbText
 10
307.707105121606
 20
41.990098820068
 30
0.0
 40
3.5
  1
Glue Joint
 41
1.421546802701
  7
Arial
 72
     5
 11
338.972605500214
 21
41.990098820068
 31
0.0
100
AcDbText
  0
LINE
  5
254
330
170
100
AcDbEntity
  8
PROFILE
  6
AUSGEZOGEN
 62
     5
420
      255
370
    18
100
AcDbLine
 10
227.184337556525
 20
-112.605267409784
 30
0.0
 11
428.352337556525
 21
-112.605267409784
 31
0.0
  0
LINE
  5
255
330
170
100
AcDbEntity
  8
PROFILE
  6
AUSGEZOGEN
 62
     5
420
      255
370
    18
100
AcDbLine
 10
227.184337556525
 20
-123.801328392205
 30
0.0
 11
428.352337556525
 21
-123.801328392205
 31
0.0
  0
LINE
  5
256
330
170
100
AcDbEntity
  8
PROFILE
  6
AUSGEZOGEN
 62
     5
420
      255
370
    18
100
AcDbLine
 10
428.352337556525
 20
-135.849372323708
 30
0.0
 11
227.184337556525
 21
-135.849372323708
 31
0.0
  0
TEXT
  5
257
330
170
100
AcDbEntity
  8
PROFILE
  6
AUSGEZOGEN
 62
     7
420
 16777215
370
    18
100
AcDbText
 10
229.683325358899
 20
-110.964681946273
 30
0.0
 40
3.5
  1
KNIFE GRIND NEEDED ?
 41
1.427091498526
  7
Lucida Calligraphy
 72
     5
 11
311.428553485957
 21
-110.964681946273
 31
0.0
100
AcDbText
  0
TEXT
  5
258
330
170
100
AcDbEntity
  8
PROFILE
  6
AUSGEZOGEN
 62
     5
420
      255
370
    18
100
AcDbText
 10
227.767530789957
 20
-133.873104099506
 30
0.0
 40
3.5
  1
Circle one
 41
0.902435142448
  7
Lucida Calligraphy
 72
     5
 11
247.612530789957
 21
-133.873104099506
 31
0.0
100
AcDbText
  0
TEXT
  5
259
330
170
100
AcDbEntity
  8
PROFILE
  6
AUSGEZOGEN
 62
     5
420
      255
370
    18
100
AcDbText
 10
228.22945259196
 20
-129.110143568963
 30
0.0
 40
3.5
  1
Ship via
 41
1.088691690241
  7
Lucida Calligraphy
 72
     5
 11
247.148192439129
 21
-129.110143568963
 31
0.0
100
AcDbText
  0
TEXT
  5
25A
330
170
100
AcDbEntity
  8
PROFILE
  6
AUSGEZOGEN
 62
     5
420
      255
370
    18
100
AcDbText
 10
354.805072895721
 20
-131.723769619025
 30
0.0
 40
3.880555555556
  1
UPS -
 41
0.889874060598
  7
Lucida Calligraphy
 72
     5
 11
367.661357827012
 21
-131.723769619025
 31
0.0
100
AcDbText
  0
TEXT
  5
25B
330
170
100
AcDbEntity
  8
PROFILE
  6
AUSGEZOGEN
 62
     7
420
 16777215
370
    18
100
AcDbText
 10
335.282325153662
 20
-131.677239245428
 30
0.0
 40
3.55825947599
  1
2 Day
 41
0.931746313857
  7
Lucida Calligraphy
 72
     5
 11
347.370255872389
 21
-131.677239245428
 31
0.0
100
AcDbText
  0
TEXT
  5
25C
330
170
100
AcDbEntity
  8
PROFILE
  6
AUSGEZOGEN
 62
     7
420
 16777215
370
    18
100
AcDbText
 10
308.504127399492
 20
-129.356068424006
 30
0.0
 40
2.469444444444
  1
Standard
 41
1.361935045736
  7
Lucida Calligraphy
 72
     5
 11
327.553422088525
 21
-129.356068424006
 31
0.0
100
AcDbText
  0
TEXT
  5
25D
330
170
100
AcDbEntity
  8
PROFILE
  6
AUSGEZOGEN
 62
     7
420
 16777215
370
    18
100
AcDbText
 10
308.504127399492
 20
-133.307179593993
 30
0.0
 40
2.469444444444
  1
Overnight
 41
1.39695919784
  7
Lucida Calligraphy
 72
     5
 11
329.378341550464
 21
-133.307179593993
 31
0.0
100
AcDbText
  0
TEXT
  5
25E
330
170
100
AcDbEntity
  8
PROFILE
  6
AUSGEZOGEN
 62
     7
420
 16777215
370
    18
100
AcDbText
 10
281.581416479671
 20
-129.29145482082
 30
0.0
 40
2.469444444444
  1
Priority
 41
1.595671214319
  7
Lucida Calligraphy
 72
     5
 11
298.694666686579
 21
-129.29145482082
 31
0.0
100
AcDbText
  0
TEXT
  5
25F
330
170
100
AcDbEntity
  8
PROFILE
  6
AUSGEZOGEN
 62
     7
420
 16777215
370
    18
100
AcDbText
 10
281.581416479671
 20
-133.242565990807
 30
0.0
 40
2.469444444444
  1
Overnight
 41
1.39695919784
  7
Lucida Calligraphy
 72
     5
 11
302.455630630643
 21
-133.242565990807
 31
0.0
100
AcDbText
  0
TEXT
  5
260
330
170
100
AcDbEntity
  8
PROFILE
  6
AUSGEZOGEN
 62
     5
420
      255
370
    18
100
AcDbText
 10
255.712873999681
 20
-131.766624803508
 30
0.0
 40
3.880555555556
  1
FEDEX -
 41
0.870751925974
  7
Lucida Calligraphy
 72
     5
 11
274.321033739417
 21
-131.766624803508
 31
0.0
100
AcDbText
  0
TEXT
  5
261
330
170
100
AcDbEntity
  8
PROFILE
  6
AUSGEZOGEN
 62
     7
420
 16777215
370
    18
100
AcDbText
 10
373.309299065198
 20
-131.443937487366
 30
0.0
 40
3.175
  1
Red  Blue  Ground
 41
1.345588251381
  7
Lucida Calligraphy
 72
     5
 11
422.696424655642
 21
-131.443937487366
 31
0.0
100
AcDbText
  0
LINE
  5
262
330
170
100
AcDbEntity
  8
PROFILE
  6
AUSGEZOGEN
 62
     5
420
      255
370
    18
100
AcDbLine
 10
351.372735012549
 20
-135.849372323708
 30
0.0
 11
351.372735012549
 21
-123.96226654098
 31
0.0
  0
TEXT
  5
263
330
170
100
AcDbEntity
  8
PROFILE
  6
AUSGEZOGEN
 62
     1
420
 16711680
370
    18
100
AcDbText
 10
275.922965054813
 20
-121.573816206325
 30
0.0
 40
3.5
  1
FULL
 41
1.318195155484
  7
Lucida Calligraphy
 72
     5
 11
291.669465284649
 21
-121.573816206325
 31
0.0
100
AcDbText
  0
LINE
  5
264
330
170
100
AcDbEntity
  8
PROFILE
  6
AUSGEZOGEN
 62
     5
420
      255
370
    18
100
AcDbLine
 10
227.184337556525
 20
-135.849372323708
 30
0.0
 11
227.184337556525
 21
126.100827676292
 31
0.0
  0
LINE
  5
265
330
170
100
AcDbEntity
  8
PROFILE
  6
AUSGEZOGEN
 62
     5
420
      255
370
    18
100
AcDbLine
 10
428.352337556525
 20
-135.849372323708
 30
0.0
 11
428.352337556525
 21
126.100827676292
 31
0.0
  0
LINE
  5
266
330
170
100
AcDbEntity
  8
PROFILE
  6
AUSGEZOGEN
 62
     5
420
      255
370
    18
100
AcDbLine
 10
428.352337556525
 20
126.100827676292
 30
0.0
 11
227.184337556525
 21
126.100827676292
 31
0.0
  0
WIPEOUT
  5
267
330
170
100
AcDbEntity
  8
PROFILE
  6
AUSGEZOGEN
 62
     5
420
      255
370
    18
 92
      308
310
34010000070000000C0000000E000000120000000C00000016000000000000C20C00000014000000010000006C00000007000000040000005F6ABB2C37996C40A88F04CDFD335AC000000000000000008C4AEDEABFCE7540A88F04CDFD335AC000000000000000008C4AEDEABFCE75401F92EB1E4F8C58C000000000000000
310
005F6ABB2C37996C401F92EB1E4F8C58C000000000000000000C0000000E000000050000000C00000016000000FF0000C28400000006000000050000005F6ABB2C37996C40A88F04CDFD335AC000000000000000008C4AEDEABFCE7540A88F04CDFD335AC000000000000000008C4AEDEABFCE75401F92EB1E4F8C58C00000
310
0000000000005F6ABB2C37996C401F92EB1E4F8C58C000000000000000005F6ABB2C37996C40A88F04CDFD335AC00000000000000000
100
AcDbWipeout
 90
        0
 10
228.787985197111
 20
-104.812365774588
 30
0.0
 11
120.1338697060326
 21
0.0
 31
0.0
 12
0.0
 22
120.1338697060326
 32
0.0
 13
1.0
 23
1.0
340
0
 70
     7
280
     1
281
    50
282
    50
283
     0
360
0
 71
     2
 91
        5
 14
-0.5
 24
0.5
 14
0.5
 24
0.5
 14
0.5
 24
0.444894502762
 14
-0.5
 24
0.444894502762
 14
-0.5
 24
0.5
  0
TEXT
  5
268
330
170
100
AcDbEntity
  8
PROFILE
  6
AUSGEZOGEN
 62
     5
420
      255
370
    18
100
AcDbText
 10
228.787985197111
 20
-103.571108907345
 30
0.0
 40
4.137522890809
  1
PLEASE SIGN OR MAKE CORRECT CHANGES.
 41
0.935804806331
  7
Lucida Calligraphy
 72
     5
 11
348.921854903144
 21
-103.571108907345
 31
0.0
100
AcDbText
  0
WIPEOUT
  5
269
330
170
100
AcDbEntity
  8
PROFILE
  6
AUSGEZOGEN
 62
     1
420
 16711680
370
    18
 92
      308
310
34010000070000000C0000000E000000120000000C00000016000000000000C20C00000014000000010000006C000000070000000400000042B075F5630D7640BE52A0EBB4365AC0000000000000000076E3B84070C07A40BE52A0EBB4365AC0000000000000000076E3B84070C07A4058EC39854ED058C000000000000000
310
0042B075F5630D764058EC39854ED058C000000000000000000C0000000E000000010000000C000000160000000000FFC284000000060000000500000042B075F5630D7640BE52A0EBB4365AC0000000000000000076E3B84070C07A40BE52A0EBB4365AC0000000000000000076E3B84070C07A4058EC39854ED058C00000
310
00000000000042B075F5630D764058EC39854ED058C0000000000000000042B075F5630D7640BE52A0EBB4365AC00000000000000000
100
AcDbWipeout
 90
        0
 10
352.836904010506
 20
-104.854792505804
 30
0.0
 11
75.19050146341323
 21
0.0
 31
0.0
 12
0.0
 22
75.19050146341323
 32
0.0
 13
1.0
 23
1.0
340
0
 70
     7
280
     1
281
    50
282
    50
283
     0
360
0
 71
     2
 91
        5
 14
-0.5
 24
0.5
 14
0.5
 24
0.5
 14
0.5
 24
0.425522507617
 14
-0.5
 24
0.425522507617
 14
-0.5
 24
0.5
  0
TEXT
  5
26A
330
170
100
AcDbEntity
  8
PROFILE
  6
AUSGEZOGEN
 62
     1
420
 16711680
370
    18
100
AcDbText
 10
352.836904010506
 20
-103.804792505804
 30
0.0
 40
3.5
  1
X------------------
 41
2.309751684563
  7
Brush Script MT
 72
     5
 11
428.02740547392
 21
-103.804792505804
 31
0.0
100
AcDbText
  0
LINE
  5
26B
330
170
100
AcDbEntity
  8
PROFILE
  6
AUSGEZOGEN
 62
     7
420
 16777215
370
    18
100
AcDbLine
 10
270.888102982977
 20
104.572187796357
 30
0.0
 11
278.116314826244
 21
104.572187796357
 31
0.0
  0
LINE
  5
26C
330
170
100
AcDbEntity
  8
PROFILE
  6
AUSGEZOGEN
 62
     7
420
 16777215
370
    18
100
AcDbLine
 10
270.888102982977
 20
102.890447932797
 30
0.0
 11
278.116314826244
 21
102.890447932797
 31
0.0
  0
LINE
  5
26D
330
170
100
AcDbEntity
  8
PROFILE
  6
AUSGEZOGEN
 62
     7
420
 16777215
370
    18
100
AcDbLine
 10
266.833252436753
 20
102.890447932797
 30
0.0
 11
270.124145633688
 21
102.890447932797
 31
0.0
  0
LINE
  5
26E
330
170
100
AcDbEntity
  8
PROFILE
  6
AUSGEZOGEN
 62
     7
420
 16777215
370
    18
100
AcDbLine
 10
262.837167840475
 20
102.890447932797
 30
0.0
 11
265.951763187574
 21
102.890447932797
 31
0.0
  0
LINE
  5
26F
330
170
100
AcDbEntity
  8
PROFILE
  6
AUSGEZOGEN
 62
     7
420
 16777215
370
    18
100
AcDbLine
 10
278.116314826244
 20
105.257341074104
 30
0.0
 11
278.116314826244
 21
110.770335238842
 31
0.0
  0
LINE
  5
270
330
170
100
AcDbEntity
  8
PROFILE
  6
AUSGEZOGEN
 62
     7
420
 16777215
370
    18
100
AcDbLine
 10
278.116314826244
 20
102.890447932797
 30
0.0
 11
278.116314826244
 21
104.572187796357
 31
0.0
  0
LINE
  5
271
330
170
100
AcDbEntity
  8
PROFILE
  6
AUSGEZOGEN
 62
     7
420
 16777215
370
    18
100
AcDbLine
 10
262.837167840475
 20
102.890447932797
 30
0.0
 11
262.837167840475
 21
113.852900376745
 31
0.0
  0
LINE
  5
272
330
170
100
AcDbEntity
  8
PROFILE
  6
AUSGEZOGEN
 62
     7
420
 16777215
370
    18
100
AcDbLine
 10
265.951763187574
 20
102.890447932797
 30
0.0
 11
265.951763187574
 21
110.182154198004
 31
0.0
  0
LINE
  5
273
330
170
100
AcDbEntity
  8
PROFILE
  6
AUSGEZOGEN
 62
     7
420
 16777215
370
    18
100
AcDbLine
 10
266.833252436753
 20
102.890447932797
 30
0.0
 11
266.833252436753
 21
110.182154198004
 31
0.0
  0
LINE
  5
274
330
170
100
AcDbEntity
  8
PROFILE
  6
AUSGEZOGEN
 62
     7
420
 16777215
370
    18
100
AcDbLine
 10
270.888102982977
 20
105.257341074104
 30
0.0
 11
270.888102982977
 21
110.185823563104
 31
0.0
  0
LINE
  5
275
330
170
100
AcDbEntity
  8
PROFILE
  6
AUSGEZOGEN
 62
     7
420
 16777215
370
    18
100
AcDbLine
 10
270.888102982977
 20
102.890447932797
 30
0.0
 11
270.888102982977
 21
104.572187796357
 31
0.0
  0
LINE
  5
276
330
170
100
AcDbEntity
  8
PROFILE
  6
AUSGEZOGEN
 62
     7
420
 16777215
370
    18
100
AcDbLine
 10
275.001719479145
 20
105.257341074104
 30
0.0
 11
275.001719479145
 21
113.852900376745
 31
0.0
  0
LINE
  5
277
330
170
100
AcDbEntity
  8
PROFILE
  6
AUSGEZOGEN
 62
     7
420
 16777215
370
    18
100
AcDbLine
 10
275.001719479145
 20
105.257341074104
 30
0.0
 11
278.116314826244
 21
105.257341074104
 31
0.0
  0
LINE
  5
278
330
170
100
AcDbEntity
  8
PROFILE
  6
AUSGEZOGEN
 62
     7
420
 16777215
370
    18
100
AcDbLine
 10
270.888102982977
 20
105.257341074104
 30
0.0
 11
274.002698330076
 21
105.257341074104
 31
0.0
  0
LINE
  5
279
330
170
100
AcDbEntity
  8
PROFILE
  6
AUSGEZOGEN
 62
     7
420
 16777215
370
    18
100
AcDbLine
 10
275.001719479145
 20
113.852900376745
 30
0.0
 11
279.21625473743
 21
113.852900376745
 31
0.0
  0
LINE
  5
27A
330
170
100
AcDbEntity
  8
PROFILE
  6
AUSGEZOGEN
 62
     7
420
 16777215
370
    18
100
AcDbLine
 10
262.837167840475
 20
113.852900376745
 30
0.0
 11
266.090513237871
 21
113.852900376745
 31
0.0
  0
ARC
  5
27B
330
170
100
AcDbEntity
  8
PROFILE
  6
AUSGEZOGEN
 62
     7
420
 16777215
370
    18
100
AcDbCircle
 10
266.090513237871
 20
110.940847257864
 30
0.0
 40
2.912053118881551
100
AcDbArc
 50
32.066426975729
 51
90.0
  0
LINE
  5
27C
330
170
100
AcDbEntity
  8
PROFILE
  6
AUSGEZOGEN
 62
     7
420
 16777215
370
    18
100
AcDbLine
 10
274.002698330076
 20
105.257341074104
 30
0.0
 11
274.002698330076
 21
110.899202076458
 31
0.0
  0
ARC
  5
27D
330
170
100
AcDbEntity
  8
PROFILE
  6
AUSGEZOGEN
 62
     7
420
 16777215
370
    18
100
AcDbCircle
 10
271.049000029789
 20
110.899202076458
 30
0.0
 40
2.953698300287107
100
AcDbArc
 50
0.0
 51
147.485292992988
  0
ARC
  5
27E
330
170
100
AcDbEntity
  8
PROFILE
  6
AUSGEZOGEN
 62
     7
420
 16777215
370
    18
100
AcDbCircle
 10
266.392507812164
 20
110.182154198004
 30
0.0
 40
0.4407446245895066
100
AcDbArc
 50
0.0
 51
180.0
  0
LINE
  5
27F
330
170
100
AcDbEntity
  8
PROFILE
  6
AUSGEZOGEN
 62
     7
420
 16777215
370
    18
100
AcDbLine
 10
283.464016271264
 20
102.890447932797
 30
0.0
 11
281.63618394108
 21
107.410905882764
 31
0.0
  0
ARC
  5
280
330
170
100
AcDbEntity
  8
PROFILE
  6
AUSGEZOGEN
 62
     7
420
 16777215
370
    18
100
AcDbCircle
 10
279.21625473743
 20
110.177381059288
 30
0.0
 40
3.675519317457272
100
AcDbArc
 50
311.177284003839
 51
90.0
  0
LINE
  5
281
330
170
100
AcDbEntity
  8
PROFILE
  6
AUSGEZOGEN
 62
     7
420
 16777215
370
    18
100
AcDbLine
 10
278.116314826244
 20
110.770335238842
 30
0.0
 11
278.785675258194
 21
110.770335238842
 31
0.0
  0
ARC
  5
282
330
170
100
AcDbEntity
  8
PROFILE
  6
AUSGEZOGEN
 62
     7
420
 16777215
370
    18
100
AcDbCircle
 10
278.785675258194
 20
109.991170438432
 30
0.0
 40
0.7791648004099827
100
AcDbArc
 50
269.396898994247
 51
90.0
  0
LINE
  5
283
330
170
100
AcDbEntity
  8
PROFILE
  6
AUSGEZOGEN
 62
     7
420
 16777215
370
    18
100
AcDbLine
 10
279.83817039849
 20
102.890447932797
 30
0.0
 11
283.464016271264
 21
102.890447932797
 31
0.0
  0
LINE
  5
284
330
170
100
AcDbEntity
  8
PROFILE
  6
AUSGEZOGEN
 62
     7
420
 16777215
370
    18
100
AcDbLine
 10
279.83817039849
 20
102.890447932797
 30
0.0
 11
278.777473844387
 21
105.500299313624
 31
0.0
  0
LINE
  5
285
330
170
100
AcDbEntity
  8
PROFILE
  6
AUSGEZOGEN
 62
     7
420
 16777215
370
    18
100
AcDbLine
 10
278.785675258194
 20
109.212005638022
 30
0.0
 11
278.777473844387
 21
109.212005638022
 31
0.0
  0
LINE
  5
286
330
170
100
AcDbEntity
  8
PROFILE
  6
AUSGEZOGEN
 62
     7
420
 16777215
370
    18
100
AcDbLine
 10
278.777473844387
 20
105.500299313624
 30
0.0
 11
278.777473844387
 21
109.212048802865
 31
0.0
  0
LINE
  5
287
330
170
100
AcDbEntity
  8
PROFILE
  6
AUSGEZOGEN
 62
     7
420
 16777215
370
    18
100
AcDbLine
 10
270.013952463998
 20
102.890447932797
 30
0.0
 11
270.013952463998
 21
110.185823563104
 31
0.0
  0
ARC
  5
288
330
170
100
AcDbEntity
  8
PROFILE
  6
AUSGEZOGEN
 62
     7
420
 16777215
370
    18
100
AcDbCircle
 10
270.451027723487
 20
110.185823563104
 30
0.0
 40
0.437075259489488
100
AcDbArc
 50
0.0
 51
180.0
  0
LINE
  5
289
330
170
100
AcDbEntity
  8
PROFILE
  6
AUSGEZOGEN
 62
     7
420
 16777215
370
    18
100
AcDbLine
 10
281.571751628913
 20
120.422932526513
 30
0.0
 11
285.786286887198
 21
120.422932526513
 31
0.0
  0
LINE
  5
28A
330
170
100
AcDbEntity
  8
PROFILE
  6
AUSGEZOGEN
 62
     7
420
 16777215
370
    18
100
AcDbLine
 10
269.407199990242
 20
120.422932526513
 30
0.0
 11
272.660545387639
 21
120.422932526513
 31
0.0
  0
ARC
  5
28B
330
170
100
AcDbEntity
  8
PROFILE
  6
AUSGEZOGEN
 62
     7
420
 16777215
370
    18
100
AcDbCircle
 10
272.660545387639
 20
117.510879407631
 30
0.0
 40
2.912053118881559
100
AcDbArc
 50
33.472713849325
 51
90.0
  0
ARC
  5
28C
330
170
100
AcDbEntity
  8
PROFILE
  6
AUSGEZOGEN
 62
     7
420
 16777215
370
    18
100
AcDbCircle
 10
277.619032179556
 20
117.469234226226
 30
0.0
 40
2.953698300287107
100
AcDbArc
 50
31.162869112745
 51
135.0
  0
LINE
  5
28D
330
170
100
AcDbEntity
  8
PROFILE
  6
AUSGEZOGEN
 62
     7
420
 16777215
370
    18
100
AcDbLine
 10
290.034048421031
 20
109.460480082564
 30
0.0
 11
288.206216090848
 21
113.980938032532
 31
0.0
  0
ARC
  5
28E
330
170
100
AcDbEntity
  8
PROFILE
  6
AUSGEZOGEN
 62
     7
420
 16777215
370
    18
100
AcDbCircle
 10
285.786286887198
 20
116.747413209056
 30
0.0
 40
3.675519317457272
100
AcDbArc
 50
311.177284003839
 51
90.0
  0
LINE
  5
28F
330
170
100
AcDbEntity
  8
PROFILE
  6
AUSGEZOGEN
 62
     7
420
 16777215
370
    18
100
AcDbLine
 10
269.407199990242
 20
120.422932526513
 30
0.0
 11
262.837167840475
 21
113.852900376745
 31
0.0
  0
LINE
  5
290
330
170
100
AcDbEntity
  8
PROFILE
  6
AUSGEZOGEN
 62
     7
420
 16777215
370
    18
100
AcDbLine
 10
290.034048421031
 20
109.460480082564
 30
0.0
 11
283.464016271264
 21
102.890447932797
 31
0.0
  0
LINE
  5
291
330
170
100
AcDbEntity
  8
PROFILE
  6
AUSGEZOGEN
 62
     7
420
 16777215
370
    18
100
AcDbLine
 10
288.206216090848
 20
113.980938032532
 30
0.0
 11
281.63618394108
 21
107.410905882764
 31
0.0
  0
LINE
  5
292
330
170
100
AcDbEntity
  8
PROFILE
  6
AUSGEZOGEN
 62
     7
420
 16777215
370
    18
100
AcDbLine
 10
281.571751628913
 20
120.422932526513
 30
0.0
 11
275.001719479145
 21
113.852900376745
 31
0.0
  0
LINE
  5
293
330
170
100
AcDbEntity
  8
PROFILE
  6
AUSGEZOGEN
 62
     7
420
 16777215
370
    18
100
AcDbLine
 10
268.960419932076
 20
112.98778217417
 30
0.0
 11
275.530452081844
 21
119.557814323938
 31
0.0
  0
LINE
  5
294
330
170
100
AcDbEntity
  8
PROFILE
  6
AUSGEZOGEN
 62
     7
420
 16777215
370
    18
100
AcDbLine
 10
265.951763187574
 20
102.890447932797
 30
0.0
 11
266.833252436753
 21
103.771937181976
 31
0.0
  0
LINE
  5
295
330
170
100
AcDbEntity
  8
PROFILE
  6
AUSGEZOGEN
 62
     7
420
 16777215
370
    18
100
AcDbLine
 10
270.124145633688
 20
102.890447932797
 30
0.0
 11
270.888102982977
 21
103.654405282085
 31
0.0
  0
LINE
  5
296
330
170
100
AcDbEntity
  8
PROFILE
  6
AUSGEZOGEN
 62
     7
420
 16777215
370
    18
100
AcDbLine
 10
278.116314826244
 20
104.572187796357
 30
0.0
 11
278.854616440248
 21
105.31048941036
 31
0.0
  0
LINE
  5
297
330
170
100
AcDbEntity
  8
PROFILE
  6
AUSGEZOGEN
 62
     7
420
 16777215
370
    18
100
AcDbLine
 10
278.116314826244
 20
102.890447932797
 30
0.0
 11
279.340597201103
 21
104.114730307656
 31
0.0
  0
LINE
  5
298
330
170
100
AcDbEntity
  8
PROFILE
  6
AUSGEZOGEN
 62
     7
420
 16777215
370
    18
100
AcDbLine
 10
270.888102982977
 20
104.572187796357
 30
0.0
 11
271.573256260723
 21
105.257341074104
 31
0.0
  0
LINE
  5
299
330
170
100
AcDbEntity
  8
PROFILE
  6
AUSGEZOGEN
 62
     7
420
 16777215
370
    18
100
AcDbLine
 10
274.002698330076
 20
105.257341074104
 30
0.0
 11
275.001719479145
 21
106.256362223173
 31
0.0
  0
LINE
  5
29A
330
170
100
AcDbEntity
  8
PROFILE
  6
AUSGEZOGEN
 62
     7
420
 16777215
370
    18
100
AcDbLine
 10
278.116314826244
 20
105.257341074104
 30
0.0
 11
278.777473844387
 21
105.918500092247
 31
0.0
  0
HATCH
  5
29B
330
170
100
AcDbEntity
  8
PROFILE
  6
AUSGEZOGEN
 62
     7
420
 16777215
370
    18
100
AcDbHatch
 10
0.0
 20
0.0
 30
0.0
210
0.0
220
0.0
230
1.0
  2
SOLID
 70
     1
 71
     0
 91
        1
 92
        2
 72
     1
 73
     1
 93
       36
 10
266.8332524367531
 20
110.1821541980038
 42
0.0
 10
266.8332524367531
 20
102.8904479327968
 42
0.0
 10
270.0139524639976
 20
102.8904479327968
 42
0.0
 10
270.0139524639976
 20
110.1858235631038
 42
-0.0984914033571201
 10
270.0472228370777
 20
110.3530850236072
 42
-0.0984914033573957
 10
270.1419688436132
 20
110.4948824429777
 42
-0.0984914033573227
 10
270.2837662629838
 20
110.5896284495132
 42
-0.0984914033570521
 10
270.4510277234871
 20
110.6228988225932
 42
-0.0984914033570199
 10
270.6182891839904
 20
110.5896284495132
 42
-0.09849140335735
 10
270.7600866033609
 20
110.4948824429777
 42
-0.0984914033573958
 10
270.8548326098964
 20
110.3530850236072
 42
-0.09849140335712
 10
270.8881029829765
 20
110.1858235631038
 42
0.0
 10
270.8881029829765
 20
105.2573410741039
 42
0.0
 10
274.0026983300757
 20
105.2573410741039
 42
0.0
 10
274.0026983300757
 20
110.8992020764582
 42
0.0921921528156874
 10
273.8052321382986
 20
111.9610486817348
 42
0.0921921528156875
 10
273.2392363251526
 20
112.8809181559178
 42
0.0921921528156937
 10
272.3803889230034
 20
113.5358168120885
 42
0.0921921528156405
 10
271.3435244942053
 20
113.8381796178794
 42
0.0921921528156545
 10
270.2672798589942
 20
113.7475783198101
 42
0.0921921528156871
 10
269.2955572767951
 20
113.2761270145018
 42
0.0921921528156574
 10
268.5582835974507
 20
112.4868623999532
 42
0.0844609494626365
 10
267.9081726542416
 20
113.2159665104015
 42
0.0844609494626321
 10
267.0535255046696
 20
113.689057719452
 42
0.084460949462618
 10
266.0905132378714
 20
113.8529003767452
 42
0.0
 10
262.8371678404749
 20
113.8529003767452
 42
0.0
 10
262.8371678404749
 20
102.8904479327968
 42
0.0
 10
265.9517631875741
 20
102.8904479327968
 42
0.0
 10
265.9517631875741
 20
110.1821541980038
 42
-0.0984914033572098
 10
265.985312874441
 20
110.3508198637381
 42
-0.0984914033570387
 10
266.0808542993448
 20
110.4938077108226
 42
-0.098491403357048
 10
266.2238421464292
 20
110.5893491357265
 42
-0.098491403357133
 10
266.3925078121636
 20
110.6228988225934
 42
-0.098491403357101
 10
266.561173477898
 20
110.5893491357265
 42
-0.0984914033570751
 10
266.7041613249824
 20
110.4938077108226
 42
-0.0984914033570207
 10
266.7997027498862
 20
110.3508198637381
 42
-0.0984914033572098
 97
        0
 75
     0
 76
     1
 98
        0
  0
HATCH
  5
29C
330
170
100
AcDbEntity
  8
PROFILE
  6
AUSGEZOGEN
 62
     7
420
 16777215
370
    18
100
AcDbHatch
 10
0.0
 20
0.0
 30
0.0
210
0.0
220
0.0
230
1.0
  2
SOLID
 70
     1
 71
     0
 91
        1
 92
        2
 72
     1
 73
     1
 93
       25
 10
279.2162547374303
 20
113.8529003767452
 42
0.0
 10
275.0017194791453
 20
113.8529003767452
 42
0.0
 10
275.0017194791453
 20
105.2573410741039
 42
0.0
 10
278.1163148262444
 20
105.2573410741039
 42
0.0
 10
278.1163148262444
 20
110.7703352388424
 42
0.0
 10
278.785675258194
 20
110.7703352388424
 42
-0.0984914033573542
 10
279.0838487183929
 20
110.7110248499844
 42
-0.0984914033573075
 10
279.3366279722258
 20
110.5421231524641
 42
-0.0984914033570853
 10
279.505529669746
 20
110.2893438986314
 42
-0.0984914033571532
 10
279.564840058604
 20
109.9911704384324
 42
-0.0984914033571352
 10
279.505529669746
 20
109.6929969782335
 42
-0.0984914033570546
 10
279.3366279722258
 20
109.4402177244006
 42
-0.0984914033573077
 10
279.0838487183929
 20
109.2713160268804
 42
-0.0984914033573614
 10
278.785675258194
 20
109.2120056380224
 42
0.0
 10
278.7774738443874
 20
109.2120056380224
 42
0.0
 10
278.7774738443874
 20
105.5002993136236
 42
0.0
 10
279.8381703984896
 20
102.8904479327968
 42
0.0
 10
283.4640162712638
 20
102.8904479327968
 42
0.0
 10
281.6361839410804
 20
107.4109058827641
 42
0.0
 10
281.982729913954
 20
107.7574518556375
 42
0.0956852398052985
 10
282.6849078708942
 20
108.9616970161615
 42
0.0956852398052948
 10
282.8881388123088
 20
110.3408117591434
 42
0.0956852398053042
 10
282.5631890651321
 20
111.6964178788064
 42
0.0956852398052757
 10
281.7568008951115
 20
112.8335187578444
 42
0.0956852398052787
 10
280.5849688843819
 20
113.5885485774459
 42
0.0956852398052959
 97
        0
 75
     0
 76
     1
 98
        0
  0
HATCH
  5
29D
330
170
100
AcDbEntity
  8
PROFILE
  6
AUSGEZOGEN
 62
     1
420
 16711680
370
    18
100
AcDbHatch
 10
0.0
 20
0.0
 30
0.0
210
0.0
220
0.0
230
1.0
  2
SOLID
 70
     1
 71
     0
 91
        1
 92
        2
 72
     0
 73
     1
 93
        4
 10
270.8881029829765
 20
104.5721877963571
 10
270.8881029829765
 20
102.8904479327968
 10
278.1163148262444
 20
102.8904479327968
 10
278.1163148262444
 20
104.5721877963571
 97
        0
 75
     0
 76
     1
 98
        0
  0
LINE
  5
29E
330
170
100
AcDbEntity
  8
PROFILE
  6
AUSGEZOGEN
 62
     5
420
      255
370
    18
100
AcDbLine
 10
267.848346740627
 20
123.622385695584
 30
0.0
 11
387.700964973328
 21
123.622385695584
 31
0.0
  0
LINE
  5
29F
330
170
100
AcDbEntity
  8
PROFILE
  6
AUSGEZOGEN
 62
     5
420
      255
370
    18
100
AcDbLine
 10
258.323346740627
 20
108.166621089715
 30
0.0
 11
258.323346740627
 21
114.097385695584
 31
0.0
  0
ARC
  5
2A0
330
170
100
AcDbEntity
  8
PROFILE
  6
AUSGEZOGEN
 62
     5
420
      255
370
    18
100
AcDbCircle
 10
267.848346740627
 20
114.097385695584
 30
0.0
 40
9.524999999999999
100
AcDbArc
 50
90.0
 51
180.0
  0
WIPEOUT
  5
2A1
330
170
100
AcDbEntity
  8
PROFILE
  6
AUSGEZOGEN
 62
     1
420
 16711680
370
    18
 92
      308
310
34010000070000000C0000000E000000120000000C00000016000000000000C20C00000014000000010000006C0000000700000004000000BE720021DB6A72406C3F4F98AACA5C4000000000000000007A4DB106766278406C3F4F98AACA5C4000000000000000007A4DB106766278403BCA959A68C45E4000000000000000
310
00BE720021DB6A72403BCA959A68C45E4000000000000000000C0000000E000000010000000C000000160000000000FFC2840000000600000005000000BE720021DB6A72406C3F4F98AACA5C4000000000000000007A4DB106766278406C3F4F98AACA5C4000000000000000007A4DB106766278403BCA959A68C45E400000
310
000000000000BE720021DB6A72403BCA959A68C45E400000000000000000BE720021DB6A72406C3F4F98AACA5C400000000000000000
100
AcDbWipeout
 90
        0
 10
294.678498269797
 20
115.166662289992
 30
0.0
 11
95.47531670650261
 21
0.0
 31
0.0
 12
0.0
 22
95.47531670650261
 32
0.0
 13
1.0
 23
1.0
340
0
 70
     7
280
     1
281
    50
282
    50
283
     0
360
0
 71
     2
 91
        5
 14
-0.5
 24
0.5
 14
0.5
 24
0.5
 14
0.5
 24
0.417232825249
 14
-0.5
 24
0.417232825249
 14
-0.5
 24
0.5
  0
TEXT
  5
2A2
330
170
100
AcDbEntity
  8
PROFILE
  6
AUSGEZOGEN
 62
     1
420
 16711680
370
    18
100
AcDbText
 10
294.678498269797
 20
116.648328956658
 30
0.0
 40
4.938888888889
  1
Mirror Reflections Inc.
 41
1.424144335948
  7
Lucida Calligraphy
 72
     5
 11
390.1538149763
 21
116.648328956658
 31
0.0
100
AcDbText
  0
WIPEOUT
  5
2A3
330
170
100
AcDbEntity
  8
PROFILE
  6
AUSGEZOGEN
 62
     7
420
 16777215
370
    18
 92
      308
310
34010000070000000C0000000E000000120000000C00000016000000000000C20C00000014000000010000006C0000000700000004000000B00788A25963724048BA2E60D4855B400000000000000000E08C4B02D364784048BA2E60D4855B400000000000000000E08C4B02D3647840AE2095C63AEC5C4000000000000000
310
00B00788A259637240AE2095C63AEC5C4000000000000000000C0000000E000000070000000C00000016000000FFFFFFC2840000000600000005000000B00788A25963724048BA2E60D4855B400000000000000000E08C4B02D364784048BA2E60D4855B400000000000000000E08C4B02D3647840AE2095C63AEC5C400000
310
000000000000B00788A259637240AE2095C63AEC5C400000000000000000B00788A25963724048BA2E60D4855B400000000000000000
100
AcDbWipeout
 90
        0
 10
294.209383517616
 20
110.091087384827
 30
0.0
 11
96.09213234305486
 21
0.0
 31
0.0
 12
0.0
 22
96.09213234305486
 32
0.0
 13
1.0
 23
1.0
340
0
 70
     7
280
     1
281
    50
282
    50
283
     0
360
0
 71
     2
 91
        5
 14
-0.5
 24
0.5
 14
0.5
 24
0.5
 14
0.5
 24
0.441722596185
 14
-0.5
 24
0.441722596185
 14
-0.5
 24
0.5
  0
TEXT
  5
2A4
330
170
100
AcDbEntity
  8
PROFILE
  6
AUSGEZOGEN
 62
     7
420
 16777215
370
    18
100
AcDbText
 10
294.209383517616
 20
111.141087384827
 30
0.0
 40
3.5
  1
1588 South 250 East - Kaysville Utah 84037
 41
1.002442491425
  7
Lucida Calligraphy
 72
     5
 11
390.30151586067
 21
111.141087384827
 31
0.0
100
AcDbText
  0
WIPEOUT
  5
2A5
330
170
100
AcDbEntity
  8
PROFILE
  6
AUSGEZOGEN
 62
     7
420
 16777215
370
    18
 92
      308
310
34010000070000000C0000000E000000120000000C00000016000000000000C20C00000014000000010000006C0000000700000004000000933197A55654724028F545DC07205A400000000000000000458FE2135F5B784028F545DC07205A400000000000000000458FE2135F5B78408E5BAC426E865B4000000000000000
310
00933197A5565472408E5BAC426E865B4000000000000000000C0000000E000000070000000C00000016000000FFFFFFC2840000000600000005000000933197A55654724028F545DC07205A400000000000000000458FE2135F5B784028F545DC07205A400000000000000000458FE2135F5B78408E5BAC426E865B400000
310
000000000000933197A5565472408E5BAC426E865B400000000000000000933197A55654724028F545DC07205A400000000000000000
100
AcDbWipeout
 90
        0
 10
293.271154013252
 20
104.500479763334
 30
0.0
 11
96.43955830993502
 21
0.0
 31
0.0
 12
0.0
 22
96.43955830993502
 32
0.0
 13
1.0
 23
1.0
340
0
 70
     7
280
     1
281
    50
282
    50
283
     0
360
0
 71
     2
 91
        5
 14
-0.5
 24
0.5
 14
0.5
 24
0.5
 14
0.5
 24
0.441932542018
 14
-0.5
 24
0.441932542018
 14
-0.5
 24
0.5
  0
TEXT
  5
2A6
330
170
100
AcDbEntity
  8
PROFILE
  6
AUSGEZOGEN
 62
     7
420
 16777215
370
    18
100
AcDbText
 10
293.271154013252
 20
105.550479763334
 30
0.0
 40
3.5
  1
Phone / Fax (801)-451-5987
 41
1.571470258762
  7
Lucida Calligraphy
 72
     5
 11
389.710712323187
 21
105.550479763334
 31
0.0
100
AcDbText
  0
WIPEOUT
  5
2A7
330
170
100
AcDbEntity
  8
PROFILE
  6
AUSGEZOGEN
 62
     7
420
 16777215
370
    18
 92
      308
310
34010000070000000C0000000E000000120000000C00000016000000000000C20C00000014000000010000006C0000000700000004000000205B6C9B864F7240609E13F01EBB58400000000000000000C0E5992151587840609E13F01EBB58400000000000000000C0E5992151587840F4DCFC835D245A4000000000000000
310
00205B6C9B864F7240F4DCFC835D245A4000000000000000000C0000000E000000070000000C00000016000000FFFFFFC2840000000600000005000000205B6C9B864F7240609E13F01EBB58400000000000000000C0E5992151587840609E13F01EBB58400000000000000000C0E5992151587840F4DCFC835D245A400000
310
000000000000205B6C9B864F7240F4DCFC835D245A400000000000000000205B6C9B864F7240609E13F01EBB58400000000000000000
100
AcDbWipeout
 90
        0
 10
292.970363066926
 20
98.923763293418
 30
0.0
 11
96.54944436826366
 21
0.0
 31
0.0
 12
0.0
 22
96.54944436826366
 32
0.0
 13
1.0
 23
1.0
340
0
 70
     7
280
     1
281
    50
282
    50
283
     0
360
0
 71
     2
 91
        5
 14
-0.5
 24
0.5
 14
0.5
 24
0.5
 14
0.5
 24
0.441538302148
 14
-0.5
 24
0.441538302148
 14
-0.5
 24
0.5
  0
TEXT
  5
2A8
330
170
100
AcDbEntity
  8
PROFILE
  6
AUSGEZOGEN
 62
     7
420
 16777215
370
    18
100
AcDbText
 10
292.970363066926
 20
99.982096626751
 30
0.0
 40
3.527777777778
  1
www.mirror-reflections.com
 41
1.618758291542
  7
Lucida Calligraphy
 72
     5
 11
389.51980743519
 21
99.982096626751
 31
0.0
100
AcDbText
  0
LINE
  5
2A9
330
170
100
AcDbEntity
  8
PROFILE
  6
AUSGEZOGEN
 62
     5
420
      255
370
    18
100
AcDbLine
 10
397.225964973328
 20
108.166621089715
 30
0.0
 11
397.225964973328
 21
114.097385695584
 31
0.0
  0
ARC
  5
2AA
330
170
100
AcDbEntity
  8
PROFILE
  6
AUSGEZOGEN
 62
     5
420
      255
370
    18
100
AcDbCircle
 10
387.700964973328
 20
114.097385695584
 30
0.0
 40
9.524999999999999
100
AcDbArc
 50
0.0
 51
90.0
  0
LINE
  5
2AB
330
170
100
AcDbEntity
  8
PROFILE
  6
AUSGEZOGEN
 62
     5
420
      255
370
    18
100
AcDbLine
 10
267.848346740627
 20
98.641621089715
 30
0.0
 11
387.700964973328
 21
98.641621089715
 31
0.0
  0
ARC
  5
2AC
330
170
100
AcDbEntity
  8
PROFILE
  6
AUSGEZOGEN
 62
     5
420
      255
370
    18
100
AcDbCircle
 10
387.700964973328
 20
108.166621089715
 30
0.0
 40
9.524999999999999
100
AcDbArc
 50
270.0
 51
0.0
  0
ARC
  5
2AD
330
170
100
AcDbEntity
  8
PROFILE
  6
AUSGEZOGEN
 62
     5
420
      255
370
    18
100
AcDbCircle
 10
267.848346740627
 20
108.166621089715
 30
0.0
 40
9.524999999999999
100
AcDbArc
 50
180.0
 51
270.0
  0
LINE
  5
2AE
330
170
100
AcDbEntity
  8
PROFILE
  6
AUSGEZOGEN
 62
     5
420
      255
370
    18
100
AcDbLine
 10
385.50831877175
 20
-123.801328392205
 30
0.0
 11
385.50831877175
 21
-112.605267409784
 31
0.0
  0
WIPEOUT
  5
2AF
330
170
100
AcDbEntity
  8
PROFILE
  6
AUSGEZOGEN
 62
     5
420
      255
370
    18
 92
      308
310
34010000070000000C0000000E000000120000000C00000016000000000000C20C00000014000000010000006C0000000700000004000000ACC185572C186E40A63D498C3A5A5DC000000000000000002C57C9E298EF6F40A63D498C3A5A5DC000000000000000002C57C9E298EF6F4030A58EAF3B395CC000000000000000
310
00ACC185572C186E4030A58EAF3B395CC000000000000000000C0000000E000000050000000C00000016000000FF0000C2840000000600000005000000ACC185572C186E40A63D498C3A5A5DC000000000000000002C57C9E298EF6F40A63D498C3A5A5DC000000000000000002C57C9E298EF6F4030A58EAF3B395CC00000
310
000000000000ACC185572C186E4030A58EAF3B395CC00000000000000000ACC185572C186E40A63D498C3A5A5DC00000000000000000
100
AcDbWipeout
 90
        0
 10
240.755412827724
 20
-117.409823485874
 30
0.0
 11
14.732
 21
0.0
 31
0.0
 12
0.0
 22
14.732
 32
0.0
 13
1.0
 23
1.0
340
0
 70
     7
280
     1
281
    50
282
    50
283
     0
360
0
 71
     2
 91
        5
 14
-0.5
 24
0.5
 14
0.5
 24
0.5
 14
0.5
 24
0.193486590038
 14
-0.5
 24
0.193486590038
 14
-0.5
 24
0.5
  0
TEXT
  5
2B0
330
170
100
AcDbEntity
  8
PROFILE
  6
AUSGEZOGEN
 62
     5
420
      255
370
    18
100
AcDbText
 10
240.755412827724
 20
-116.563156819208
 30
0.0
 40
2.822222222222
  1
Customer
 41
0.862809917355
  7
Lucida Calligraphy
 72
     5
 11
255.487412827724
 21
-116.563156819208
 31
0.0
100
AcDbText
  0
WIPEOUT
  5
2B1
330
170
100
AcDbEntity
  8
PROFILE
  6
AUSGEZOGEN
 62
     5
420
      255
370
    18
 92
      308
310
34010000070000000C0000000E000000120000000C00000016000000000000C20C00000014000000010000006C000000070000000400000055952CB8387C714040CCC88DE46E5DC00000000000000000E966086B8FFB714040CCC88DE46E5DC00000000000000000E966086B8FFB7140CA330EB1E54D5CC000000000000000
310
0055952CB8387C7140CA330EB1E54D5CC000000000000000000C0000000E000000050000000C00000016000000FF0000C284000000060000000500000055952CB8387C714040CCC88DE46E5DC00000000000000000E966086B8FFB714040CCC88DE46E5DC00000000000000000E966086B8FFB7140CA330EB1E54D5CC00000
310
00000000000055952CB8387C7140CA330EB1E54D5CC0000000000000000055952CB8387C714040CCC88DE46E5DC00000000000000000
100
AcDbWipeout
 90
        0
 10
279.76384751716
 20
-117.732699819652
 30
0.0
 11
7.958666666666659
 21
0.0
 31
0.0
 12
0.0
 22
7.958666666666659
 32
0.0
 13
1.0
 23
1.0
340
0
 70
     7
280
     1
281
    50
282
    50
283
     0
360
0
 71
     2
 91
        5
 14
-0.5
 24
0.5
 14
0.5
 24
0.5
 14
0.5
 24
-0.067375886525
 14
-0.5
 24
-0.067375886525
 14
-0.5
 24
0.5
  0
TEXT
  5
2B2
330
170
100
AcDbEntity
  8
PROFILE
  6
AUSGEZOGEN
 62
     5
420
      255
370
    18
100
AcDbText
 10
279.76384751716
 20
-116.886033152986
 30
0.0
 40
2.822222222222
  1
Scale
 41
0.807791463764
  7
Lucida Calligraphy
 72
     5
 11
287.722514183827
 21
-116.886033152986
 31
0.0
100
AcDbText
  0
WIPEOUT
  5
2B3
330
170
100
AcDbEntity
  8
PROFILE
  6
AUSGEZOGEN
 62
     5
420
      255
370
    18
 92
      308
310
34010000070000000C0000000E000000120000000C00000016000000000000C20C00000014000000010000006C000000070000000400000083A7EBF685F5744094AF3A84D05C5DC000000000000000001DFA5CED6797754094AF3A84D05C5DC000000000000000001DFA5CED679775401E1780A7D13B5CC000000000000000
310
0083A7EBF685F574401E1780A7D13B5CC000000000000000000C0000000E000000050000000C00000016000000FF0000C284000000060000000500000083A7EBF685F5744094AF3A84D05C5DC000000000000000001DFA5CED6797754094AF3A84D05C5DC000000000000000001DFA5CED679775401E1780A7D13B5CC00000
310
00000000000083A7EBF685F574401E1780A7D13B5CC0000000000000000083A7EBF685F5744094AF3A84D05C5DC00000000000000000
100
AcDbWipeout
 90
        0
 10
335.345206184888
 20
-117.450226838408
 30
0.0
 11
10.11766666666665
 21
0.0
 31
0.0
 12
0.0
 22
10.11766666666665
 32
0.0
 13
1.0
 23
1.0
340
0
 70
     7
280
     1
281
    50
282
    50
283
     0
360
0
 71
     2
 91
        5
 14
-0.5
 24
0.5
 14
0.5
 24
0.5
 14
0.5
 24
0.05369595537
 14
-0.5
 24
0.05369595537
 14
-0.5
 24
0.5
  0
TEXT
  5
2B4
330
170
100
AcDbEntity
  8
PROFILE
  6
AUSGEZOGEN
 62
     5
420
      255
370
    18
100
AcDbText
 10
335.345206184888
 20
-116.603560171741
 30
0.0
 40
2.822222222222
  1
Part #
 41
0.962674543502
  7
Lucida Calligraphy
 72
     5
 11
345.462872851554
 21
-116.603560171741
 31
0.0
100
AcDbText
  0
WIPEOUT
  5
2B5
330
170
100
AcDbEntity
  8
PROFILE
  6
AUSGEZOGEN
 62
     5
420
      255
370
    18
 92
      308
310
34010000070000000C0000000E000000120000000C00000016000000000000C20C00000014000000010000006C00000007000000040000006665D223E21879403E6A1818CA675DC00000000000000000907A3943209279403E6A1818CA675DC00000000000000000907A394320927940C8D15D3BCB465CC000000000000000
310
006665D223E2187940C8D15D3BCB465CC000000000000000000C0000000E000000050000000C00000016000000FF0000C28400000006000000050000006665D223E21879403E6A1818CA675DC00000000000000000907A3943209279403E6A1818CA675DC00000000000000000907A394320927940C8D15D3BCB465CC00000
310
0000000000006665D223E2187940C8D15D3BCB465CC000000000000000006665D223E21879403E6A1818CA675DC00000000000000000
100
AcDbWipeout
 90
        0
 10
401.555209943638
 20
-117.621709846347
 30
0.0
 11
7.577666666666687
 21
0.0
 31
0.0
 12
0.0
 22
7.577666666666687
 32
0.0
 13
1.0
 23
1.0
340
0
 70
     7
280
     1
281
    50
282
    50
283
     0
360
0
 71
     2
 91
        5
 14
-0.5
 24
0.5
 14
0.5
 24
0.5
 14
0.5
 24
-0.095903165736
 14
-0.5
 24
-0.095903165736
 14
-0.5
 24
0.5
  0
TEXT
  5
2B6
330
170
100
AcDbEntity
  8
PROFILE
  6
AUSGEZOGEN
 62
     5
420
      255
370
    18
100
AcDbText
 10
401.555209943638
 20
-116.77504317968
 30
0.0
 40
2.822222222222
  1
Date
 41
0.91078697422
  7
Lucida Calligraphy
 72
     5
 11
409.132876610304
 21
-116.77504317968
 31
0.0
100
AcDbText
  0
LINE
  5
2B7
330
170
100
AcDbEntity
  8
PROFILE
  6
AUSGEZOGEN
 62
     5
420
      255
370
    18
100
AcDbLine
 10
272.267745905853
 20
-123.801328392205
 30
0.0
 11
272.267745905853
 21
-112.605267409784
 31
0.0
  0
LINE
  5
2B8
330
170
100
AcDbEntity
  8
PROFILE
  6
AUSGEZOGEN
 62
     5
420
      255
370
    18
100
AcDbLine
 10
295.426520675338
 20
-123.801328392205
 30
0.0
 11
295.426520675338
 21
-112.605267409784
 31
0.0
  0
TEXT
  5
2B9
330
170
100
AcDbEntity
  8
PROFILE
  6
AUSGEZOGEN
 62
     7
420
 16777215
370
    18
100
AcDbText
 10
323.167998344985
 20
-110.289441993744
 30
0.0
 40
4.181939959382
  1
 Yes   No       Please Circle One
 41
1.180002116037
  7
Lucida Calligraphy
 72
     5
 11
420.406222458881
 21
-110.289441993744
 31
0.0
100
AcDbText
  0
WIPEOUT
  5
2BA
330
170
100
AcDbEntity
  8
PROFILE
  6
AUSGEZOGEN
 62
     7
420
 16777215
370
    18
 92
      308
310
34010000070000000C0000000E000000120000000C00000016000000000000C20C00000014000000010000006C0000000700000004000000A4C0990DF1F271407409DEF244C759400000000000000000804544BC640272407409DEF244C759400000000000000000804544BC640272407C9C0E88691D5A4000000000000000
310
00A4C0990DF1F271407C9C0E88691D5A4000000000000000000C0000000E000000070000000C00000016000000FFFFFFC2840000000600000005000000A4C0990DF1F271407409DEF244C759400000000000000000804544BC640272407409DEF244C759400000000000000000804544BC640272407C9C0E88691D5A400000
310
000000000000A4C0990DF1F271407C9C0E88691D5A400000000000000000A4C0990DF1F271407409DEF244C759400000000000000000
100
AcDbWipeout
 90
        0
 10
287.183850861164
 20
103.113583294709
 30
0.0
 11
1.34598283523168
 21
0.0
 31
0.0
 12
0.0
 22
1.34598283523168
 32
0.0
 13
1.0
 23
1.0
340
0
 70
     7
280
     1
281
    50
282
    50
283
     0
360
0
 71
     2
 91
        5
 14
-0.5
 24
0.5
 14
0.217500046182
 24
0.5
 14
0.217500046182
 24
-0.5
 14
-0.5
 24
-0.5
 14
-0.5
 24
0.5
  0
TEXT
  5
2BB
330
170
100
AcDbEntity
  8
PROFILE
  6
AUSGEZOGEN
 62
     7
420
 16777215
370
    18
100
AcDbText
 10
287.183850861164
 20
103.365955076315
 30
0.0
 40
0.84123927202
  1
R
 41
1.138888962193
  7
Arial
 72
     5
 11
288.149593607603
 21
103.365955076315
 31
0.0
100
AcDbText
  0
CIRCLE
  5
2BC
330
170
100
AcDbEntity
  8
PROFILE
  6
AUSGEZOGEN
 62
     7
420
 16777215
370
    18
100
AcDbCircle
 10
287.655083865726
 20
103.792099312874
 30
0.0
 40
1.0541
  0
LINE
  5
2BD
330
170
100
AcDbEntity
  8
PROFILE
  6
AUSGEZOGEN
 62
     7
420
 16777215
370
    18
100
AcDbLine
 10
419.928551636426
 20
13.588834967526
 30
0.0
 11
387.271408779283
 21
13.588834967526
 31
0.0
  0
LINE
  5
2BE
330
170
100
AcDbEntity
  8
PROFILE
  6
AUSGEZOGEN
 62
     7
420
 16777215
370
    18
100
AcDbLine
 10
419.928551636426
 20
13.588834967526
 30
0.0
 11
419.928551636426
 21
29.917406396097
 31
0.0
  0
LINE
  5
2BF
330
170
100
AcDbEntity
  8
PROFILE
  6
AUSGEZOGEN
 62
     7
420
 16777215
370
    18
100
AcDbLine
 10
387.271408779283
 20
13.588834967526
 30
0.0
 11
387.271408779283
 21
16.310263538954
 31
0.0
  0
LINE
  5
2C0
330
170
100
AcDbEntity
  8
PROFILE
  6
AUSGEZOGEN
 62
     7
420
 16777215
370
    18
100
AcDbLine
 10
419.928551636426
 20
29.917406396097
 30
0.0
 11
417.207123064997
 21
29.917406396097
 31
0.0
  0
LINE
  5
2C1
330
170
100
AcDbEntity
  8
PROFILE
  6
AUSGEZOGEN
 62
     7
420
 16777215
370
    18
100
AcDbLine
 10
417.207123064997
 20
16.310263538954
 30
0.0
 11
417.207123064997
 21
29.917406396097
 31
0.0
  0
LINE
  5
2C2
330
170
100
AcDbEntity
  8
PROFILE
  6
AUSGEZOGEN
 62
     7
420
 16777215
370
    18
100
AcDbLine
 10
417.207123064997
 20
16.310263538954
 30
0.0
 11
387.271408779283
 21
16.310263538954
 31
0.0
  0
WIPEOUT
  5
2C3
330
170
100
AcDbEntity
  8
PROFILE
  6
AUSGEZOGEN
 62
     7
420
 16777215
370
    18
 92
      308
310
34010000070000000C0000000E000000120000000C00000016000000000000C20C00000014000000010000006C00000007000000040000002EBFE827AE667840B8F3628B4FE3344000000000000000007655EA7660CE7940B8F3628B4FE3344000000000000000007655EA7660CE794085C02F581CB0394000000000000000
310
002EBFE827AE66784085C02F581CB0394000000000000000000C0000000E000000070000000C00000016000000FFFFFFC28400000006000000050000002EBFE827AE667840B8F3628B4FE3344000000000000000007655EA7660CE7940B8F3628B4FE3344000000000000000007655EA7660CE794085C02F581CB039400000
310
0000000000002EBFE827AE66784085C02F581CB0394000000000000000002EBFE827AE667840B8F3628B4FE334400000000000000000
100
AcDbWipeout
 90
        0
 10
390.417518529098
 20
20.887932502421
 30
0.0
 11
22.48103237743317
 21
0.0
 31
0.0
 12
0.0
 22
22.48103237743317
 32
0.0
 13
1.0
 23
1.0
340
0
 70
     7
280
     1
281
    50
282
    50
283
     0
360
0
 71
     2
 91
        5
 14
-0.5
 24
0.5
 14
0.5
 24
0.5
 14
0.5
 24
0.28648667377
 14
-0.5
 24
0.28648667377
 14
-0.5
 24
0.5
  0
TEXT
  5
2C4
330
170
100
AcDbEntity
  8
PROFILE
  6
AUSGEZOGEN
 62
     7
420
 16777215
370
    18
100
AcDbText
 10
390.417518529098
 20
21.787932502421
 30
0.0
 40
3.0
  1
In Feed View
 41
0.919921121918
  7
Lucida Calligraphy
 72
     5
 11
412.898550906531
 21
21.787932502421
 31
0.0
100
AcDbText
  0
WIPEOUT
  5
2C5
330
170
100
AcDbEntity
  8
PROFILE
  6
AUSGEZOGEN
 62
     5
420
      255
370
    18
 92
      308
310
34010000070000000C0000000E000000120000000C00000016000000000000C20C00000014000000010000006C00000007000000040000009BDBD6673F7178405869BEB34E3A2040000000000000000001425DF180F379405869BEB34E3A2040000000000000000001425DF180F37940F202584DE8D3294000000000000000
310
009BDBD6673F717840F202584DE8D3294000000000000000000C0000000E000000050000000C00000016000000FF0000C28400000006000000050000009BDBD6673F7178405869BEB34E3A2040000000000000000001425DF180F379405869BEB34E3A2040000000000000000001425DF180F37940F202584DE8D329400000
310
0000000000009BDBD6673F717840F202584DE8D3294000000000000000009BDBD6673F7178405869BEB34E3A20400000000000000000
100
AcDbWipeout
 90
        0
 10
391.077979888237
 20
8.113881699556
 30
0.0
 11
24.14100029468534
 21
0.0
 31
0.0
 12
0.0
 22
24.14100029468534
 32
0.0
 13
1.0
 23
1.0
340
0
 70
     7
280
     1
281
    50
282
    50
283
     0
360
0
 71
     2
 91
        5
 14
-0.5
 24
0.5
 14
0.5
 24
0.5
 14
0.5
 24
0.301168139621
 14
-0.5
 24
0.301168139621
 14
-0.5
 24
0.5
  0
TEXT
  5
2C6
330
170
100
AcDbEntity
  8
PROFILE
  6
AUSGEZOGEN
 62
     5
420
      255
370
    18
100
AcDbText
 10
391.077979888237
 20
9.013881699556
 30
0.0
 40
3.0
  1
Bed Plate
 41
1.329643109423
  7
Lucida Calligraphy
 72
     5
 11
415.218980182923
 21
9.013881699556
 31
0.0
100
AcDbText
  0
WIPEOUT
  5
2C7
330
170
100
AcDbEntity
  8
PROFILE
  6
AUSGEZOGEN
 62
     5
420
      255
370
    18
 92
      308
310
34010000070000000C0000000E000000120000000C00000016000000000000C20C00000014000000010000006C00000007000000040000006E0253EDB8957A4080C30D55D24E2C4000000000000000006E0253EDB8957A408CAE53731F5B3C400000000000000000A1358620EC487A408CAE53731F5B3C4000000000000000
310
00A1358620EC487A4080C30D55D24E2C4000000000000000000C0000000E000000050000000C00000016000000FF0000C28400000006000000050000006E0253EDB8957A4080C30D55D24E2C4000000000000000006E0253EDB8957A408CAE53731F5B3C400000000000000000A1358620EC487A408CAE53731F5B3C400000
310
000000000000A1358620EC487A4080C30D55D24E2C4000000000000000006E0253EDB8957A4080C30D55D24E2C400000000000000000
100
AcDbWipeout
 90
        0
 10
420.557648205047
 20
14.153948457651
 30
0.0
 11
14.20200018882751
 21
0.0
 31
0.0
 12
0.0
 22
14.20200018882751
 32
0.0
 13
1.0
 23
1.0
340
0
 70
     7
280
     1
281
    50
282
    50
283
     0
360
0
 71
     2
 91
        5
 14
-0.162019438376
 24
0.5
 14
-0.162019438376
 24
-0.5
 14
-0.5
 24
-0.5
 14
-0.5
 24
0.5
 14
-0.162019438376
 24
0.5
  0
TEXT
  5
2C8
330
170
100
AcDbEntity
  8
PROFILE
  6
AUSGEZOGEN
 62
     5
420
      255
370
    18
100
AcDbText
 10
424.457648205047
 20
14.153948457651
 30
0.0
 40
3.0
  1
Fence
 50
90.0
 41
1.220417649637
  7
Lucida Calligraphy
 72
     5
 11
424.457648205047
 21
28.355948646479
 31
0.0
100
AcDbText
  0
INSERT
  5
321
330
170
100
AcDbEntity
  8
0
100
AcDbBlockReference
  2
*X10
 10
0.0
 20
0.0
 30
0.0
  0
WIPEOUT
  5
322
330
170
100
AcDbEntity
  8
PROFILE
  6
AUSGEZOGEN
 62
     7
420
 16777215
370
    18
 92
      308
310
34010000070000000C0000000E000000120000000C00000016000000000000C20C00000014000000010000006C0000000700000004000000AA75252FE45F7740004890A6C671B63F0000000000000000DEA868CBA8A67A40004890A6C671B63F0000000000000000DEA868CBA8A67A4088A700812DC0164000000000000000
310
00AA75252FE45F774088A700812DC0164000000000000000000C0000000E000000070000000C00000016000000FFFFFFC2840000000600000005000000AA75252FE45F7740004890A6C671B63F0000000000000000DEA868CBA8A67A40004890A6C671B63F0000000000000000DEA868CBA8A67A4088A700812DC016400000
310
000000000000AA75252FE45F774088A700812DC016400000000000000000AA75252FE45F7740004890A6C671B63F0000000000000000
100
AcDbWipeout
 90
        0
 10
373.993209024741
 20
0.087673583665
 30
0.0
 11
52.42300058603286
 21
0.0
 31
0.0
 12
0.0
 22
52.42300058603286
 32
0.0
 13
1.0
 23
1.0
340
0
 70
     7
280
     1
281
    50
282
    50
283
     0
360
0
 71
     2
 91
        5
 14
-0.5
 24
0.5
 14
0.5
 24
0.5
 14
0.5
 24
0.393176660294
 14
-0.5
 24
0.393176660294
 14
-0.5
 24
0.5
  0
TEXT
  5
323
330
170
100
AcDbEntity
  8
PROFILE
  6
AUSGEZOGEN
 62
     7
420
 16777215
370
    18
100
AcDbText
 10
373.993209024741
 20
1.137673583665
 30
0.0
 40
3.5
  1
Total Slop = .006"
 41
1.350951579998
  7
Lucida Calligraphy
 72
     5
 11
426.416209610774
 21
1.137673583665
 31
0.0
100
AcDbText
  0
ENDBLK
  5
172
330
170
100
AcDbEntity
  8
0
100
AcDbBlockEnd
  0
BLOCK
  5
179
330
178
100
AcDbEntity
  8
0
100
AcDbBlockBegin
  2
DimBlk_nNn01
 70
     0
 10
0.0
 20
0.0
 30
0.0
  3
DimBlk_nNn01
  1
DimBlk_nNn01
  0
LINE
  5
17B
330
178
100
AcDbEntity
  8
PROFILE
  6
AUSGEZOGEN
 62
     7
420
 16777215
370
    18
100
AcDbLine
 10
351.977836910277
 20
2.738844156236
 30
0.0
 11
348.477836910277
 21
3.438844156236
 31
0.0
  0
LINE
  5
17C
330
178
100
AcDbEntity
  8
PROFILE
  6
AUSGEZOGEN
 62
     7
420
 16777215
370
    18
100
AcDbLine
 10
348.477836910277
 20
3.438844156236
 30
0.0
 11
351.977836910277
 21
4.138844156236
 31
0.0
  0
LINE
  5
17D
330
178
100
AcDbEntity
  8
PROFILE
  6
AUSGEZOGEN
 62
     7
420
 16777215
370
    18
100
AcDbLine
 10
364.019266068791
 20
4.138844156236
 30
0.0
 11
367.519266068791
 21
3.438844156236
 31
0.0
  0
LINE
  5
17E
330
178
100
AcDbEntity
  8
PROFILE
  6
AUSGEZOGEN
 62
     7
420
 16777215
370
    18
100
AcDbLine
 10
367.519266068791
 20
3.438844156236
 30
0.0
 11
364.019266068791
 21
2.738844156236
 31
0.0
  0
LINE
  5
17F
330
178
100
AcDbEntity
  8
PROFILE
  6
AUSGEZOGEN
 62
     7
420
 16777215
370
    18
100
AcDbLine
 10
367.519266068791
 20
3.438844156236
 30
0.0
 11
348.477836910277
 21
3.438844156236
 31
0.0
  0
LINE
  5
180
330
178
100
AcDbEntity
  8
PROFILE
  6
AUSGEZOGEN
 62
     5
420
      255
370
    18
100
AcDbLine
 10
367.519266068791
 20
1.438844156236
 30
0.0
 11
367.519266068791
 21
5.438844156236
 31
0.0
  0
LINE
  5
181
330
178
100
AcDbEntity
  8
PROFILE
  6
AUSGEZOGEN
 62
     5
420
      255
370
    18
100
AcDbLine
 10
348.477836910277
 20
1.438844156236
 30
0.0
 11
348.477836910277
 21
5.438844156236
 31
0.0
  0
TEXT
  5
182
330
178
100
AcDbEntity
  8
PROFILE
  6
AUSGEZOGEN
 62
     7
420
 16777215
370
    18
100
AcDbText
 10
351.546301402273
 20
4.438844156236
 30
0.0
 40
3.5
  1
0.75
 41
1.357511064015
  7
Arial
 72
     5
 11
364.450801576795
 21
4.438844156236
 31
0.0
100
AcDbText
  0
ENDBLK
  5
17A
330
178
100
AcDbEntity
  8
0
100
AcDbBlockEnd
  0
BLOCK
  5
18A
330
189
100
AcDbEntity
  8
0
100
AcDbBlockBegin
  2
DimBlk_nNn02
 70
     0
 10
0.0
 20
0.0
 30
0.0
  3
DimBlk_nNn02
  1
DimBlk_nNn02
  0
LINE
  5
18C
330
189
100
AcDbEntity
  8
PROFILE
  6
AUSGEZOGEN
 62
     7
420
 16777215
370
    18
100
AcDbLine
 10
290.348866068791
 20
2.738844156236
 30
0.0
 11
286.848866068791
 21
3.438844156236
 31
0.0
  0
LINE
  5
18D
330
189
100
AcDbEntity
  8
PROFILE
  6
AUSGEZOGEN
 62
     7
420
 16777215
370
    18
100
AcDbLine
 10
286.848866068791
 20
3.438844156236
 30
0.0
 11
290.348866068791
 21
4.138844156236
 31
0.0
  0
LINE
  5
18E
330
189
100
AcDbEntity
  8
PROFILE
  6
AUSGEZOGEN
 62
     7
420
 16777215
370
    18
100
AcDbLine
 10
302.390295227305
 20
4.138844156236
 30
0.0
 11
305.890295227305
 21
3.438844156236
 31
0.0
  0
LINE
  5
18F
330
189
100
AcDbEntity
  8
PROFILE
  6
AUSGEZOGEN
 62
     7
420
 16777215
370
    18
100
AcDbLine
 10
305.890295227305
 20
3.438844156236
 30
0.0
 11
302.390295227305
 21
2.738844156236
 31
0.0
  0
LINE
  5
190
330
189
100
AcDbEntity
  8
PROFILE
  6
AUSGEZOGEN
 62
     7
420
 16777215
370
    18
100
AcDbLine
 10
305.890295227305
 20
3.438844156236
 30
0.0
 11
286.848866068791
 21
3.438844156236
 31
0.0
  0
LINE
  5
191
330
189
100
AcDbEntity
  8
PROFILE
  6
AUSGEZOGEN
 62
     5
420
      255
370
    18
100
AcDbLine
 10
305.890295227305
 20
1.438844156236
 30
0.0
 11
305.890295227305
 21
5.438844156236
 31
0.0
  0
LINE
  5
192
330
189
100
AcDbEntity
  8
PROFILE
  6
AUSGEZOGEN
 62
     5
420
      255
370
    18
100
AcDbLine
 10
286.848866068791
 20
1.438844156236
 30
0.0
 11
286.848866068791
 21
5.438844156236
 31
0.0
  0
TEXT
  5
193
330
189
100
AcDbEntity
  8
PROFILE
  6
AUSGEZOGEN
 62
     7
420
 16777215
370
    18
100
AcDbText
 10
289.917330560787
 20
4.438844156236
 30
0.0
 40
3.5
  1
0.75
 41
1.357511064015
  7
Arial
 72
     5
 11
302.82183073531
 21
4.438844156236
 31
0.0
100
AcDbText
  0
ENDBLK
  5
18B
330
189
100
AcDbEntity
  8
0
100
AcDbBlockEnd
  0
BLOCK
  5
1A8
330
1A7
100
AcDbEntity
  8
0
100
AcDbBlockBegin
  2
DimBlk_nNn03
 70
     0
 10
0.0
 20
0.0
 30
0.0
  3
DimBlk_nNn03
  1
DimBlk_nNn03
  0
LINE
  5
1AA
330
1A7
100
AcDbEntity
  8
PROFILE
  6
AUSGEZOGEN
 62
     7
420
 16777215
370
    18
100
AcDbLine
 10
273.17659544257
 20
-34.492464675757
 30
0.0
 11
273.87659544257
 21
-30.992464675757
 31
0.0
  0
LINE
  5
1AB
330
1A7
100
AcDbEntity
  8
PROFILE
  6
AUSGEZOGEN
 62
     7
420
 16777215
370
    18
100
AcDbLine
 10
273.87659544257
 20
-30.992464675757
 30
0.0
 11
274.57659544257
 21
-34.492464675757
 31
0.0
  0
LINE
  5
1AC
330
1A7
100
AcDbEntity
  8
PROFILE
  6
AUSGEZOGEN
 62
     7
420
 16777215
370
    18
100
AcDbLine
 10
274.57659544257
 20
-23.936464675757
 30
0.0
 11
273.87659544257
 21
-27.436464675757
 31
0.0
  0
LINE
  5
1AD
330
1A7
100
AcDbEntity
  8
PROFILE
  6
AUSGEZOGEN
 62
     7
420
 16777215
370
    18
100
AcDbLine
 10
273.87659544257
 20
-27.436464675757
 30
0.0
 11
273.17659544257
 21
-23.936464675757
 31
0.0
  0
LINE
  5
1AE
330
1A7
100
AcDbEntity
  8
PROFILE
  6
AUSGEZOGEN
 62
     7
420
 16777215
370
    18
100
AcDbLine
 10
273.87659544257
 20
-27.436464675757
 30
0.0
 11
273.87659544257
 21
-30.992464675757
 31
0.0
  0
LINE
  5
1AF
330
1A7
100
AcDbEntity
  8
PROFILE
  6
AUSGEZOGEN
 62
     7
420
 16777215
370
    18
100
AcDbLine
 10
273.87659544257
 20
-30.992464675757
 30
0.0
 11
273.87659544257
 21
-48.492464675757
 31
0.0
  0
LINE
  5
1B0
330
1A7
100
AcDbEntity
  8
PROFILE
  6
AUSGEZOGEN
 62
     7
420
 16777215
370
    18
100
AcDbLine
 10
273.87659544257
 20
-27.436464675757
 30
0.0
 11
273.87659544257
 21
-9.936464675757
 31
0.0
  0
LINE
  5
1B1
330
1A7
100
AcDbEntity
  8
PROFILE
  6
AUSGEZOGEN
 62
     5
420
      255
370
    18
100
AcDbLine
 10
275.87659544257
 20
-27.436464675757
 30
0.0
 11
271.87659544257
 21
-27.436464675757
 31
0.0
  0
LINE
  5
1B2
330
1A7
100
AcDbEntity
  8
PROFILE
  6
AUSGEZOGEN
 62
     5
420
      255
370
    18
100
AcDbLine
 10
275.87659544257
 20
-30.992464675757
 30
0.0
 11
271.87659544257
 21
-30.992464675757
 31
0.0
  0
WIPEOUT
  5
1B3
330
1A7
100
AcDbEntity
  8
PROFILE
  6
AUSGEZOGEN
 62
     7
420
 16777215
370
    18
 92
      308
310
34010000070000000C0000000E000000120000000C00000016000000000000C20C00000014000000010000006C00000007000000040000005A27BE55D31E71403E76CBE856D541C000000000000000005A27BE55D31E7140B01FCA4BED0F36C00000000000000000C08D24BC39C57040B01FCA4BED0F36C000000000000000
310
00C08D24BC39C570403E76CBE856D541C000000000000000000C0000000E000000070000000C00000016000000FFFFFFC28400000006000000050000005A27BE55D31E71403E76CBE856D541C000000000000000005A27BE55D31E7140B01FCA4BED0F36C00000000000000000C08D24BC39C57040B01FCA4BED0F36C00000
310
000000000000C08D24BC39C570403E76CBE856D541C000000000000000005A27BE55D31E71403E76CBE856D541C00000000000000000
100
AcDbWipeout
 90
        0
 10
268.32659544257
 20
-35.666714763018
 30
0.0
 11
13.60450016260147
 21
0.0
 31
0.0
 12
0.0
 22
13.60450016260147
 32
0.0
 13
1.0
 23
1.0
340
0
 70
     7
280
     1
281
    50
282
    50
283
     0
360
0
 71
     2
 91
        5
 14
-0.088371499646
 24
0.5
 14
-0.088371499646
 24
-0.5
 14
-0.5
 24
-0.5
 14
-0.5
 24
0.5
 14
-0.088371499646
 24
0.5
  0
TEXT
  5
1B4
330
1A7
100
AcDbEntity
  8
PROFILE
  6
AUSGEZOGEN
 62
     7
420
 16777215
370
    18
100
AcDbText
 10
272.87659544257
 20
-35.666714763018
 30
0.0
 40
3.5
  1
0.14
 50
90.0
 41
1.357511064015
  7
Arial
 72
     5
 11
272.87659544257
 21
-22.762214588496
 31
0.0
100
AcDbText
  0
ENDBLK
  5
1A9
330
1A7
100
AcDbEntity
  8
0
100
AcDbBlockEnd
  0
BLOCK
  5
1B7
330
1B6
100
AcDbEntity
  8
0
100
AcDbBlockBegin
  2
DimBlk_nNn04
 70
     0
 10
0.0
 20
0.0
 30
0.0
  3
DimBlk_nNn04
  1
DimBlk_nNn04
  0
LINE
  5
1B9
330
1B6
100
AcDbEntity
  8
PROFILE
  6
AUSGEZOGEN
 62
     7
420
 16777215
370
    18
100
AcDbLine
 10
383.203637887685
 20
-34.492464675757
 30
0.0
 11
383.903637887685
 21
-30.992464675757
 31
0.0
  0
LINE
  5
1BA
330
1B6
100
AcDbEntity
  8
PROFILE
  6
AUSGEZOGEN
 62
     7
420
 16777215
370
    18
100
AcDbLine
 10
383.903637887685
 20
-30.992464675757
 30
0.0
 11
384.603637887685
 21
-34.492464675757
 31
0.0
  0
LINE
  5
1BB
330
1B6
100
AcDbEntity
  8
PROFILE
  6
AUSGEZOGEN
 62
     7
420
 16777215
370
    18
100
AcDbLine
 10
384.603637887685
 20
-23.936464675757
 30
0.0
 11
383.903637887685
 21
-27.436464675757
 31
0.0
  0
LINE
  5
1BC
330
1B6
100
AcDbEntity
  8
PROFILE
  6
AUSGEZOGEN
 62
     7
420
 16777215
370
    18
100
AcDbLine
 10
383.903637887685
 20
-27.436464675757
 30
0.0
 11
383.203637887685
 21
-23.936464675757
 31
0.0
  0
LINE
  5
1BD
330
1B6
100
AcDbEntity
  8
PROFILE
  6
AUSGEZOGEN
 62
     7
420
 16777215
370
    18
100
AcDbLine
 10
383.903637887685
 20
-27.436464675757
 30
0.0
 11
383.903637887685
 21
-30.992464675757
 31
0.0
  0
LINE
  5
1BE
330
1B6
100
AcDbEntity
  8
PROFILE
  6
AUSGEZOGEN
 62
     7
420
 16777215
370
    18
100
AcDbLine
 10
383.903637887685
 20
-30.992464675757
 30
0.0
 11
383.903637887685
 21
-48.492464675757
 31
0.0
  0
LINE
  5
1BF
330
1B6
100
AcDbEntity
  8
PROFILE
  6
AUSGEZOGEN
 62
     7
420
 16777215
370
    18
100
AcDbLine
 10
383.903637887685
 20
-27.436464675757
 30
0.0
 11
383.903637887685
 21
-9.936464675757
 31
0.0
  0
LINE
  5
1C0
330
1B6
100
AcDbEntity
  8
PROFILE
  6
AUSGEZOGEN
 62
     5
420
      255
370
    18
100
AcDbLine
 10
381.903637887685
 20
-27.436464675757
 30
0.0
 11
385.903637887685
 21
-27.436464675757
 31
0.0
  0
LINE
  5
1C1
330
1B6
100
AcDbEntity
  8
PROFILE
  6
AUSGEZOGEN
 62
     5
420
      255
370
    18
100
AcDbLine
 10
381.903637887685
 20
-30.992464675757
 30
0.0
 11
385.903637887685
 21
-30.992464675757
 31
0.0
  0
WIPEOUT
  5
1C2
330
1B6
100
AcDbEntity
  8
PROFILE
  6
AUSGEZOGEN
 62
     7
420
 16777215
370
    18
 92
      308
310
34010000070000000C0000000E000000120000000C00000016000000000000C20C00000014000000010000006C0000000700000004000000553DCD1942FF77403F76CBE856D541C00000000000000000553DCD1942FF7740B21FCA4BED0F36C00000000000000000BBA33380A8A57740B21FCA4BED0F36C000000000000000
310
00BBA33380A8A577403F76CBE856D541C000000000000000000C0000000E000000070000000C00000016000000FFFFFFC2840000000600000005000000553DCD1942FF77403F76CBE856D541C00000000000000000553DCD1942FF7740B21FCA4BED0F36C00000000000000000BBA33380A8A57740B21FCA4BED0F36C00000
310
000000000000BBA33380A8A577403F76CBE856D541C00000000000000000553DCD1942FF77403F76CBE856D541C00000000000000000
100
AcDbWipeout
 90
        0
 10
378.353637887685
 20
-35.666714763018
 30
0.0
 11
13.60450016260147
 21
0.0
 31
0.0
 12
0.0
 22
13.60450016260147
 32
0.0
 13
1.0
 23
1.0
340
0
 70
     7
280
     1
281
    50
282
    50
283
     0
360
0
 71
     2
 91
        5
 14
-0.088371499646
 24
0.5
 14
-0.088371499646
 24
-0.5
 14
-0.5
 24
-0.5
 14
-0.5
 24
0.5
 14
-0.088371499646
 24
0.5
  0
TEXT
  5
1C3
330
1B6
100
AcDbEntity
  8
PROFILE
  6
AUSGEZOGEN
 62
     7
420
 16777215
370
    18
100
AcDbText
 10
382.903637887685
 20
-35.666714763018
 30
0.0
 40
3.5
  1
0.14
 50
90.0
 41
1.357511064015
  7
Arial
 72
     5
 11
382.903637887685
 21
-22.762214588496
 31
0.0
100
AcDbText
  0
ENDBLK
  5
1B8
330
1B6
100
AcDbEntity
  8
0
100
AcDbBlockEnd
  0
BLOCK
  5
1CD
330
1CC
100
AcDbEntity
  8
0
100
AcDbBlockBegin
  2
DimBlk_nNn05
 70
     0
 10
0.0
 20
0.0
 30
0.0
  3
DimBlk_nNn05
  1
DimBlk_nNn05
  0
LINE
  5
1CF
330
1CC
100
AcDbEntity
  8
PROFILE
  6
AUSGEZOGEN
 62
     7
420
 16777215
370
    18
100
AcDbLine
 10
283.348866068791
 20
-19.654420337497
 30
0.0
 11
286.848866068791
 21
-20.354420337497
 31
0.0
  0
LINE
  5
1D0
330
1CC
100
AcDbEntity
  8
PROFILE
  6
AUSGEZOGEN
 62
     7
420
 16777215
370
    18
100
AcDbLine
 10
286.848866068791
 20
-20.354420337497
 30
0.0
 11
283.348866068791
 21
-21.054420337497
 31
0.0
  0
LINE
  5
1D1
330
1CC
100
AcDbEntity
  8
PROFILE
  6
AUSGEZOGEN
 62
     7
420
 16777215
370
    18
100
AcDbLine
 10
295.802756185612
 20
-21.054420337497
 30
0.0
 11
292.302756185612
 21
-20.354420337497
 31
0.0
  0
LINE
  5
1D2
330
1CC
100
AcDbEntity
  8
PROFILE
  6
AUSGEZOGEN
 62
     7
420
 16777215
370
    18
100
AcDbLine
 10
292.302756185612
 20
-20.354420337497
 30
0.0
 11
295.802756185612
 21
-19.654420337497
 31
0.0
  0
LINE
  5
1D3
330
1CC
100
AcDbEntity
  8
PROFILE
  6
AUSGEZOGEN
 62
     7
420
 16777215
370
    18
100
AcDbLine
 10
292.302756185612
 20
-20.354420337497
 30
0.0
 11
286.848866068791
 21
-20.354420337497
 31
0.0
  0
LINE
  5
1D4
330
1CC
100
AcDbEntity
  8
PROFILE
  6
AUSGEZOGEN
 62
     7
420
 16777215
370
    18
100
AcDbLine
 10
286.848866068791
 20
-20.354420337497
 30
0.0
 11
269.348866068791
 21
-20.354420337497
 31
0.0
  0
LINE
  5
1D5
330
1CC
100
AcDbEntity
  8
PROFILE
  6
AUSGEZOGEN
 62
     7
420
 16777215
370
    18
100
AcDbLine
 10
292.302756185612
 20
-20.354420337497
 30
0.0
 11
309.802756185612
 21
-20.354420337497
 31
0.0
  0
LINE
  5
1D6
330
1CC
100
AcDbEntity
  8
PROFILE
  6
AUSGEZOGEN
 62
     5
420
      255
370
    18
100
AcDbLine
 10
292.302756185612
 20
-22.354420337497
 30
0.0
 11
292.302756185612
 21
-18.354420337497
 31
0.0
  0
LINE
  5
1D7
330
1CC
100
AcDbEntity
  8
PROFILE
  6
AUSGEZOGEN
 62
     5
420
      255
370
    18
100
AcDbLine
 10
286.848866068791
 20
-22.354420337497
 30
0.0
 11
286.848866068791
 21
-18.354420337497
 31
0.0
  0
WIPEOUT
  5
1D8
330
1CC
100
AcDbEntity
  8
PROFILE
  6
AUSGEZOGEN
 62
     7
420
 16777215
370
    18
 92
      308
310
34010000070000000C0000000E000000120000000C00000016000000000000C20C00000014000000010000006C000000070000000400000045B37554AE9371400A635B17886734C00000000000000000DF4C2FEAF1A972400A635B17886734C00000000000000000DF4C2FEAF1A97240E09283FBDC9B2DC000000000000000
310
0045B37554AE937140E09283FBDC9B2DC000000000000000000C0000000E000000070000000C00000016000000FFFFFFC284000000060000000500000045B37554AE9371400A635B17886734C00000000000000000DF4C2FEAF1A972400A635B17886734C00000000000000000DF4C2FEAF1A97240E09283FBDC9B2DC00000
310
00000000000045B37554AE937140E09283FBDC9B2DC0000000000000000045B37554AE9371400A635B17886734C00000000000000000
100
AcDbWipeout
 90
        0
 10
281.23006101586
 20
-20.404420337497
 30
0.0
 11
17.39150021076205
 21
0.0
 31
0.0
 12
0.0
 22
17.39150021076205
 32
0.0
 13
1.0
 23
1.0
340
0
 70
     7
280
     1
281
    50
282
    50
283
     0
360
0
 71
     2
 91
        5
 14
-0.5
 24
0.5
 14
0.5
 24
0.5
 14
0.5
 24
0.178003626361
 14
-0.5
 24
0.178003626361
 14
-0.5
 24
0.5
  0
TEXT
  5
1D9
330
1CC
100
AcDbEntity
  8
PROFILE
  6
AUSGEZOGEN
 62
     7
420
 16777215
370
    18
100
AcDbText
 10
281.23006101586
 20
-19.354420337497
 30
0.0
 40
3.5
  1
0.215
 41
1.36569303082
  7
Arial
 72
     5
 11
297.921561238543
 21
-19.354420337497
 31
0.0
100
AcDbText
  0
ENDBLK
  5
1CE
330
1CC
100
AcDbEntity
  8
0
100
AcDbBlockEnd
  0
BLOCK
  5
1E5
330
1E4
100
AcDbEntity
  8
0
100
AcDbBlockBegin
  2
DimBlk_nNn06
 70
     0
 10
0.0
 20
0.0
 30
0.0
  3
DimBlk_nNn06
  1
DimBlk_nNn06
  0
LINE
  5
1E7
330
1E4
100
AcDbEntity
  8
PROFILE
  6
AUSGEZOGEN
 62
     7
420
 16777215
370
    18
100
AcDbLine
 10
357.431727027098
 20
-21.465425279763
 30
0.0
 11
353.931727027098
 21
-20.765425279763
 31
0.0
  0
LINE
  5
1E8
330
1E4
100
AcDbEntity
  8
PROFILE
  6
AUSGEZOGEN
 62
     7
420
 16777215
370
    18
100
AcDbLine
 10
353.931727027098
 20
-20.765425279763
 30
0.0
 11
357.431727027098
 21
-20.065425279763
 31
0.0
  0
LINE
  5
1E9
330
1E4
100
AcDbEntity
  8
PROFILE
  6
AUSGEZOGEN
 62
     7
420
 16777215
370
    18
100
AcDbLine
 10
344.977836910277
 20
-20.065425279763
 30
0.0
 11
348.477836910277
 21
-20.765425279763
 31
0.0
  0
LINE
  5
1EA
330
1E4
100
AcDbEntity
  8
PROFILE
  6
AUSGEZOGEN
 62
     7
420
 16777215
370
    18
100
AcDbLine
 10
348.477836910277
 20
-20.765425279763
 30
0.0
 11
344.977836910277
 21
-21.465425279763
 31
0.0
  0
LINE
  5
1EB
330
1E4
100
AcDbEntity
  8
PROFILE
  6
AUSGEZOGEN
 62
     7
420
 16777215
370
    18
100
AcDbLine
 10
348.477836910277
 20
-20.765425279763
 30
0.0
 11
353.931727027098
 21
-20.765425279763
 31
0.0
  0
LINE
  5
1EC
330
1E4
100
AcDbEntity
  8
PROFILE
  6
AUSGEZOGEN
 62
     7
420
 16777215
370
    18
100
AcDbLine
 10
353.931727027098
 20
-20.765425279763
 30
0.0
 11
371.431727027098
 21
-20.765425279763
 31
0.0
  0
LINE
  5
1ED
330
1E4
100
AcDbEntity
  8
PROFILE
  6
AUSGEZOGEN
 62
     7
420
 16777215
370
    18
100
AcDbLine
 10
348.477836910277
 20
-20.765425279763
 30
0.0
 11
330.977836910277
 21
-20.765425279763
 31
0.0
  0
LINE
  5
1EE
330
1E4
100
AcDbEntity
  8
PROFILE
  6
AUSGEZOGEN
 62
     5
420
      255
370
    18
100
AcDbLine
 10
348.477836910277
 20
-22.765425279763
 30
0.0
 11
348.477836910277
 21
-18.765425279763
 31
0.0
  0
LINE
  5
1EF
330
1E4
100
AcDbEntity
  8
PROFILE
  6
AUSGEZOGEN
 62
     5
420
      255
370
    18
100
AcDbLine
 10
353.931727027098
 20
-22.765425279763
 30
0.0
 11
353.931727027098
 21
-18.765425279763
 31
0.0
  0
WIPEOUT
  5
1F0
330
1E4
100
AcDbEntity
  8
PROFILE
  6
AUSGEZOGEN
 62
     7
420
 16777215
370
    18
 92
      308
310
34010000070000000C0000000E000000120000000C00000016000000000000C20C00000014000000010000006C000000070000000400000063583098BE6D754060E90CB6BFD034C00000000000000000FDF1E92D0284764060E90CB6BFD034C00000000000000000FDF1E92D028476408C9FE6384C6E2EC000000000000000
310
0063583098BE6D75408C9FE6384C6E2EC000000000000000000C0000000E000000070000000C00000016000000FFFFFFC284000000060000000500000063583098BE6D754060E90CB6BFD034C00000000000000000FDF1E92D0284764060E90CB6BFD034C00000000000000000FDF1E92D028476408C9FE6384C6E2EC00000
310
00000000000063583098BE6D75408C9FE6384C6E2EC0000000000000000063583098BE6D754060E90CB6BFD034C00000000000000000
100
AcDbWipeout
 90
        0
 10
342.859031857346
 20
-20.815425279763
 30
0.0
 11
17.39150021076205
 21
0.0
 31
0.0
 12
0.0
 22
17.39150021076205
 32
0.0
 13
1.0
 23
1.0
340
0
 70
     7
280
     1
281
    50
282
    50
283
     0
360
0
 71
     2
 91
        5
 14
-0.5
 24
0.5
 14
0.5
 24
0.5
 14
0.5
 24
0.178003626361
 14
-0.5
 24
0.178003626361
 14
-0.5
 24
0.5
  0
TEXT
  5
1F1
330
1E4
100
AcDbEntity
  8
PROFILE
  6
AUSGEZOGEN
 62
     7
420
 16777215
370
    18
100
AcDbText
 10
342.859031857346
 20
-19.765425279763
 30
0.0
 40
3.5
  1
0.215
 41
1.36569303082
  7
Arial
 72
     5
 11
359.550532080029
 21
-19.765425279763
 31
0.0
100
AcDbText
  0
ENDBLK
  5
1E6
330
1E4
100
AcDbEntity
  8
0
100
AcDbBlockEnd
  0
BLOCK
  5
1F6
330
1F5
100
AcDbEntity
  8
0
100
AcDbBlockBegin
  2
DimBlk_nNn07
 70
     0
 10
0.0
 20
0.0
 30
0.0
  3
DimBlk_nNn07
  1
DimBlk_nNn07
  0
LINE
  5
1F8
330
1F5
100
AcDbEntity
  8
PROFILE
  6
AUSGEZOGEN
 62
     7
420
 16777215
370
    18
100
AcDbLine
 10
358.509048058111
 20
-10.903276437659
 30
0.0
 11
362.009048058111
 21
-11.603276437659
 31
0.0
  0
LINE
  5
1F9
330
1F5
100
AcDbEntity
  8
PROFILE
  6
AUSGEZOGEN
 62
     7
420
 16777215
370
    18
100
AcDbLine
 10
362.009048058111
 20
-11.603276437659
 30
0.0
 11
358.509048058111
 21
-12.303276437659
 31
0.0
  0
LINE
  5
1FA
330
1F5
100
AcDbEntity
  8
PROFILE
  6
AUSGEZOGEN
 62
     7
420
 16777215
370
    18
100
AcDbLine
 10
371.019266068791
 20
-12.303276437659
 30
0.0
 11
367.519266068791
 21
-11.603276437659
 31
0.0
  0
LINE
  5
1FB
330
1F5
100
AcDbEntity
  8
PROFILE
  6
AUSGEZOGEN
 62
     7
420
 16777215
370
    18
100
AcDbLine
 10
367.519266068791
 20
-11.603276437659
 30
0.0
 11
371.019266068791
 21
-10.903276437659
 31
0.0
  0
LINE
  5
1FC
330
1F5
100
AcDbEntity
  8
PROFILE
  6
AUSGEZOGEN
 62
     7
420
 16777215
370
    18
100
AcDbLine
 10
367.519266068791
 20
-11.603276437659
 30
0.0
 11
362.009048058111
 21
-11.603276437659
 31
0.0
  0
LINE
  5
1FD
330
1F5
100
AcDbEntity
  8
PROFILE
  6
AUSGEZOGEN
 62
     7
420
 16777215
370
    18
100
AcDbLine
 10
362.009048058111
 20
-11.603276437659
 30
0.0
 11
344.509048058111
 21
-11.603276437659
 31
0.0
  0
LINE
  5
1FE
330
1F5
100
AcDbEntity
  8
PROFILE
  6
AUSGEZOGEN
 62
     7
420
 16777215
370
    18
100
AcDbLine
 10
367.519266068791
 20
-11.603276437659
 30
0.0
 11
385.019266068791
 21
-11.603276437659
 31
0.0
  0
LINE
  5
1FF
330
1F5
100
AcDbEntity
  8
PROFILE
  6
AUSGEZOGEN
 62
     5
420
      255
370
    18
100
AcDbLine
 10
367.519266068791
 20
-13.603276437659
 30
0.0
 11
367.519266068791
 21
-9.603276437659
 31
0.0
  0
LINE
  5
200
330
1F5
100
AcDbEntity
  8
PROFILE
  6
AUSGEZOGEN
 62
     5
420
      255
370
    18
100
AcDbLine
 10
362.009048058111
 20
-13.603276437659
 30
0.0
 11
362.009048058111
 21
-9.603276437659
 31
0.0
  0
WIPEOUT
  5
201
330
1F5
100
AcDbEntity
  8
PROFILE
  6
AUSGEZOGEN
 62
     7
420
 16777215
370
    18
 92
      308
310
34010000070000000C0000000E000000120000000C00000016000000000000C20C00000014000000010000006C0000000700000004000000B2FB7CCBB14676402FFDCD3F7A4E27C000000000000000004C953661F55C77402FFDCD3F7A4E27C000000000000000004C953661F55C7740F79335198E3618C000000000000000
310
00B2FB7CCBB1467640F79335198E3618C000000000000000000C0000000E000000070000000C00000016000000FFFFFFC2840000000600000005000000B2FB7CCBB14676402FFDCD3F7A4E27C000000000000000004C953661F55C77402FFDCD3F7A4E27C000000000000000004C953661F55C7740F79335198E3618C00000
310
000000000000B2FB7CCBB1467640F79335198E3618C00000000000000000B2FB7CCBB14676402FFDCD3F7A4E27C00000000000000000
100
AcDbWipeout
 90
        0
 10
356.41840695211
 20
-11.653276437659
 30
0.0
 11
17.39150021076205
 21
0.0
 31
0.0
 12
0.0
 22
17.39150021076205
 32
0.0
 13
1.0
 23
1.0
340
0
 70
     7
280
     1
281
    50
282
    50
283
     0
360
0
 71
     2
 91
        5
 14
-0.5
 24
0.5
 14
0.5
 24
0.5
 14
0.5
 24
0.178003626361
 14
-0.5
 24
0.178003626361
 14
-0.5
 24
0.5
  0
TEXT
  5
202
330
1F5
100
AcDbEntity
  8
PROFILE
  6
AUSGEZOGEN
 62
     7
420
 16777215
370
    18
100
AcDbText
 10
356.41840695211
 20
-10.603276437659
 30
0.0
 40
3.5
  1
0.217
 41
1.36569303082
  7
Arial
 72
     5
 11
373.109907174793
 21
-10.603276437659
 31
0.0
100
AcDbText
  0
ENDBLK
  5
1F7
330
1F5
100
AcDbEntity
  8
0
100
AcDbBlockEnd
  0
BLOCK
  5
207
330
206
100
AcDbEntity
  8
0
100
AcDbBlockBegin
  2
DimBlk_nNn08
 70
     0
 10
0.0
 20
0.0
 30
0.0
  3
DimBlk_nNn08
  1
DimBlk_nNn08
  0
LINE
  5
209
330
206
100
AcDbEntity
  8
PROFILE
  6
AUSGEZOGEN
 62
     7
420
 16777215
370
    18
100
AcDbLine
 10
296.880077216625
 20
-10.871110249306
 30
0.0
 11
300.380077216625
 21
-11.571110249306
 31
0.0
  0
LINE
  5
20A
330
206
100
AcDbEntity
  8
PROFILE
  6
AUSGEZOGEN
 62
     7
420
 16777215
370
    18
100
AcDbLine
 10
300.380077216625
 20
-11.571110249306
 30
0.0
 11
296.880077216625
 21
-12.271110249306
 31
0.0
  0
LINE
  5
20B
330
206
100
AcDbEntity
  8
PROFILE
  6
AUSGEZOGEN
 62
     7
420
 16777215
370
    18
100
AcDbLine
 10
309.390295227305
 20
-12.271110249306
 30
0.0
 11
305.890295227305
 21
-11.571110249306
 31
0.0
  0
LINE
  5
20C
330
206
100
AcDbEntity
  8
PROFILE
  6
AUSGEZOGEN
 62
     7
420
 16777215
370
    18
100
AcDbLine
 10
305.890295227305
 20
-11.571110249306
 30
0.0
 11
309.390295227305
 21
-10.871110249306
 31
0.0
  0
LINE
  5
20D
330
206
100
AcDbEntity
  8
PROFILE
  6
AUSGEZOGEN
 62
     7
420
 16777215
370
    18
100
AcDbLine
 10
305.890295227305
 20
-11.571110249306
 30
0.0
 11
300.380077216625
 21
-11.571110249306
 31
0.0
  0
LINE
  5
20E
330
206
100
AcDbEntity
  8
PROFILE
  6
AUSGEZOGEN
 62
     7
420
 16777215
370
    18
100
AcDbLine
 10
300.380077216625
 20
-11.571110249306
 30
0.0
 11
282.880077216625
 21
-11.571110249306
 31
0.0
  0
LINE
  5
20F
330
206
100
AcDbEntity
  8
PROFILE
  6
AUSGEZOGEN
 62
     7
420
 16777215
370
    18
100
AcDbLine
 10
305.890295227305
 20
-11.571110249306
 30
0.0
 11
323.390295227305
 21
-11.571110249306
 31
0.0
  0
LINE
  5
210
330
206
100
AcDbEntity
  8
PROFILE
  6
AUSGEZOGEN
 62
     5
420
      255
370
    18
100
AcDbLine
 10
305.890295227305
 20
-13.571110249306
 30
0.0
 11
305.890295227305
 21
-9.571110249306
 31
0.0
  0
LINE
  5
211
330
206
100
AcDbEntity
  8
PROFILE
  6
AUSGEZOGEN
 62
     5
420
      255
370
    18
100
AcDbLine
 10
300.380077216625
 20
-13.571110249306
 30
0.0
 11
300.380077216625
 21
-9.571110249306
 31
0.0
  0
WIPEOUT
  5
212
330
206
100
AcDbEntity
  8
PROFILE
  6
AUSGEZOGEN
 62
     7
420
 16777215
370
    18
 92
      308
310
34010000070000000C0000000E000000120000000C00000016000000000000C20C00000014000000010000006C00000007000000040000009456C287A16C724025F69F29023E27C000000000000000002EF07B1DE582734025F69F29023E27C000000000000000002EF07B1DE5827340E385D9EC9D1518C000000000000000
310
009456C287A16C7240E385D9EC9D1518C000000000000000000C0000000E000000070000000C00000016000000FFFFFFC28400000006000000050000009456C287A16C724025F69F29023E27C000000000000000002EF07B1DE582734025F69F29023E27C000000000000000002EF07B1DE5827340E385D9EC9D1518C00000
310
0000000000009456C287A16C7240E385D9EC9D1518C000000000000000009456C287A16C724025F69F29023E27C00000000000000000
100
AcDbWipeout
 90
        0
 10
294.789436110624
 20
-11.621110249306
 30
0.0
 11
17.39150021076205
 21
0.0
 31
0.0
 12
0.0
 22
17.39150021076205
 32
0.0
 13
1.0
 23
1.0
340
0
 70
     7
280
     1
281
    50
282
    50
283
     0
360
0
 71
     2
 91
        5
 14
-0.5
 24
0.5
 14
0.5
 24
0.5
 14
0.5
 24
0.178003626361
 14
-0.5
 24
0.178003626361
 14
-0.5
 24
0.5
  0
TEXT
  5
213
330
206
100
AcDbEntity
  8
PROFILE
  6
AUSGEZOGEN
 62
     7
420
 16777215
370
    18
100
AcDbText
 10
294.789436110624
 20
-10.571110249306
 30
0.0
 40
3.5
  1
0.217
 41
1.36569303082
  7
Arial
 72
     5
 11
311.480936333307
 21
-10.571110249306
 31
0.0
100
AcDbText
  0
ENDBLK
  5
208
330
206
100
AcDbEntity
  8
0
100
AcDbBlockEnd
  0
BLOCK
  5
2CA
330
2C9
100
AcDbEntity
  8
0
100
AcDbBlockBegin
  2
*X10
 70
     1
 10
0.0
 20
0.0
 30
0.0
  3
*X10
  1
*X10
  0
LINE
  5
2CC
330
2C9
100
AcDbEntity
  8
PROFILE
  6
AUSGEZOGEN
 62
    16
420
  8388608
370
    18
100
AcDbLine
 10
388.131674779619
 20
13.588834967526
 30
0.0
 11
387.82910071023
 21
13.891409036915
 31
0.0
  0
LINE
  5
2CD
330
2C9
100
AcDbEntity
  8
PROFILE
  6
AUSGEZOGEN
 62
    16
420
  8388608
370
    18
100
AcDbLine
 10
387.450293506023
 20
14.270216241122
 30
0.0
 11
387.450293506023
 21
14.270216241122
 31
0.0
  0
LINE
  5
2CE
330
2C9
100
AcDbEntity
  8
PROFILE
  6
AUSGEZOGEN
 62
    16
420
  8388608
370
    18
100
AcDbLine
 10
389.533733129162
 20
13.702005434811
 30
0.0
 11
389.533733129162
 21
13.702005434811
 31
0.0
  0
LINE
  5
2CF
330
2C9
100
AcDbEntity
  8
PROFILE
  6
AUSGEZOGEN
 62
    16
420
  8388608
370
    18
100
AcDbLine
 10
389.154925924955
 20
14.080812639018
 30
0.0
 11
387.271408779283
 21
15.96432978469
 31
0.0
  0
LINE
  5
2D0
330
2C9
100
AcDbEntity
  8
PROFILE
  6
AUSGEZOGEN
 62
    16
420
  8388608
370
    18
100
AcDbLine
 10
391.162132413276
 20
13.588834967526
 30
0.0
 11
389.344329527059
 21
15.406637853743
 31
0.0
  0
LINE
  5
2D1
330
2C9
100
AcDbEntity
  8
PROFILE
  6
AUSGEZOGEN
 62
    16
420
  8388608
370
    18
100
AcDbLine
 10
388.965522322852
 20
15.78544505795
 30
0.0
 11
388.965522322852
 21
15.78544505795
 31
0.0
  0
LINE
  5
2D2
330
2C9
100
AcDbEntity
  8
PROFILE
  6
AUSGEZOGEN
 62
    16
420
  8388608
370
    18
100
AcDbLine
 10
388.586715118645
 20
16.164252262157
 30
0.0
 11
388.440703841847
 21
16.310263538954
 31
0.0
  0
LINE
  5
2D3
330
2C9
100
AcDbEntity
  8
PROFILE
  6
AUSGEZOGEN
 62
    16
420
  8388608
370
    18
100
AcDbLine
 10
392.677361230104
 20
13.588834967526
 30
0.0
 11
391.427769150198
 21
14.838427047432
 31
0.0
  0
LINE
  5
2D4
330
2C9
100
AcDbEntity
  8
PROFILE
  6
AUSGEZOGEN
 62
    16
420
  8388608
370
    18
100
AcDbLine
 10
391.048961945991
 20
15.217234251639
 30
0.0
 11
391.048961945991
 21
15.217234251639
 31
0.0
  0
LINE
  5
2D5
330
2C9
100
AcDbEntity
  8
PROFILE
  6
AUSGEZOGEN
 62
    16
420
  8388608
370
    18
100
AcDbLine
 10
390.670154741783
 20
15.596041455847
 30
0.0
 11
389.955932658676
 21
16.310263538954
 31
0.0
  0
LINE
  5
2D6
330
2C9
100
AcDbEntity
  8
PROFILE
  6
AUSGEZOGEN
 62
    16
420
  8388608
370
    18
100
AcDbLine
 10
394.192590046933
 20
13.588834967526
 30
0.0
 11
393.511208773337
 21
14.270216241122
 31
0.0
  0
LINE
  5
2D7
330
2C9
100
AcDbEntity
  8
PROFILE
  6
AUSGEZOGEN
 62
    16
420
  8388608
370
    18
100
AcDbLine
 10
393.132401569129
 20
14.649023445329
 30
0.0
 11
393.132401569129
 21
14.649023445329
 31
0.0
  0
LINE
  5
2D8
330
2C9
100
AcDbEntity
  8
PROFILE
  6
AUSGEZOGEN
 62
    16
420
  8388608
370
    18
100
AcDbLine
 10
392.753594364922
 20
15.027830649536
 30
0.0
 11
391.471161475504
 21
16.310263538954
 31
0.0
  0
LINE
  5
2D9
330
2C9
100
AcDbEntity
  8
PROFILE
  6
AUSGEZOGEN
 62
    16
420
  8388608
370
    18
100
AcDbLine
 10
395.707818863761
 20
13.588834967526
 30
0.0
 11
395.594648396475
 21
13.702005434811
 31
0.0
  0
LINE
  5
2DA
330
2C9
100
AcDbEntity
  8
PROFILE
  6
AUSGEZOGEN
 62
    16
420
  8388608
370
    18
100
AcDbLine
 10
395.215841192268
 20
14.080812639018
 30
0.0
 11
395.215841192268
 21
14.080812639018
 31
0.0
  0
LINE
  5
2DB
330
2C9
100
AcDbEntity
  8
PROFILE
  6
AUSGEZOGEN
 62
    16
420
  8388608
370
    18
100
AcDbLine
 10
394.837033988061
 20
14.459619843225
 30
0.0
 11
392.986390292332
 21
16.310263538954
 31
0.0
  0
LINE
  5
2DC
330
2C9
100
AcDbEntity
  8
PROFILE
  6
AUSGEZOGEN
 62
    16
420
  8388608
370
    18
100
AcDbLine
 10
396.9204736112
 20
13.891409036915
 30
0.0
 11
395.026437590165
 21
15.78544505795
 31
0.0
  0
LINE
  5
2DD
330
2C9
100
AcDbEntity
  8
PROFILE
  6
AUSGEZOGEN
 62
    16
420
  8388608
370
    18
100
AcDbLine
 10
394.647630385958
 20
16.164252262157
 30
0.0
 11
394.647630385958
 21
16.164252262157
 31
0.0
  0
LINE
  5
2DE
330
2C9
100
AcDbEntity
  8
PROFILE
  6
AUSGEZOGEN
 62
    16
420
  8388608
370
    18
100
AcDbLine
 10
398.738276497417
 20
13.588834967526
 30
0.0
 11
397.109877213304
 21
15.217234251639
 31
0.0
  0
LINE
  5
2DF
330
2C9
100
AcDbEntity
  8
PROFILE
  6
AUSGEZOGEN
 62
    16
420
  8388608
370
    18
100
AcDbLine
 10
396.731070009097
 20
15.596041455847
 30
0.0
 11
396.731070009097
 21
15.596041455847
 31
0.0
  0
LINE
  5
2E0
330
2C9
100
AcDbEntity
  8
PROFILE
  6
AUSGEZOGEN
 62
    16
420
  8388608
370
    18
100
AcDbLine
 10
396.35226280489
 20
15.974848660054
 30
0.0
 11
396.016847925989
 21
16.310263538954
 31
0.0
  0
LINE
  5
2E1
330
2C9
100
AcDbEntity
  8
PROFILE
  6
AUSGEZOGEN
 62
    16
420
  8388608
370
    18
100
AcDbLine
 10
400.253505314246
 20
13.588834967526
 30
0.0
 11
399.193316836443
 21
14.649023445329
 31
0.0
  0
LINE
  5
2E2
330
2C9
100
AcDbEntity
  8
PROFILE
  6
AUSGEZOGEN
 62
    16
420
  8388608
370
    18
100
AcDbLine
 10
398.814509632236
 20
15.027830649536
 30
0.0
 11
398.814509632236
 21
15.027830649536
 31
0.0
  0
LINE
  5
2E3
330
2C9
100
AcDbEntity
  8
PROFILE
  6
AUSGEZOGEN
 62
    16
420
  8388608
370
    18
100
AcDbLine
 10
398.435702428029
 20
15.406637853743
 30
0.0
 11
397.532076742817
 21
16.310263538954
 31
0.0
  0
LINE
  5
2E4
330
2C9
100
AcDbEntity
  8
PROFILE
  6
AUSGEZOGEN
 62
    16
420
  8388608
370
    18
100
AcDbLine
 10
401.768734131074
 20
13.588834967526
 30
0.0
 11
401.276756459582
 21
14.080812639018
 31
0.0
  0
LINE
  5
2E5
330
2C9
100
AcDbEntity
  8
PROFILE
  6
AUSGEZOGEN
 62
    16
420
  8388608
370
    18
100
AcDbLine
 10
400.897949255375
 20
14.459619843225
 30
0.0
 11
400.897949255375
 21
14.459619843225
 31
0.0
  0
LINE
  5
2E6
330
2C9
100
AcDbEntity
  8
PROFILE
  6
AUSGEZOGEN
 62
    16
420
  8388608
370
    18
100
AcDbLine
 10
400.519142051168
 20
14.838427047432
 30
0.0
 11
399.047305559645
 21
16.310263538954
 31
0.0
  0
LINE
  5
2E7
330
2C9
100
AcDbEntity
  8
PROFILE
  6
AUSGEZOGEN
 62
    16
420
  8388608
370
    18
100
AcDbLine
 10
402.981388878513
 20
13.891409036915
 30
0.0
 11
402.981388878513
 21
13.891409036915
 31
0.0
  0
LINE
  5
2E8
330
2C9
100
AcDbEntity
  8
PROFILE
  6
AUSGEZOGEN
 62
    16
420
  8388608
370
    18
100
AcDbLine
 10
402.602581674306
 20
14.270216241122
 30
0.0
 11
400.708545653271
 21
16.164252262157
 31
0.0
  0
LINE
  5
2E9
330
2C9
100
AcDbEntity
  8
PROFILE
  6
AUSGEZOGEN
 62
    16
420
  8388608
370
    18
100
AcDbLine
 10
404.686021297445
 20
13.702005434811
 30
0.0
 11
402.79198527641
 21
15.596041455847
 31
0.0
  0
LINE
  5
2EA
330
2C9
100
AcDbEntity
  8
PROFILE
  6
AUSGEZOGEN
 62
    16
420
  8388608
370
    18
100
AcDbLine
 10
402.413178072203
 20
15.974848660054
 30
0.0
 11
402.413178072203
 21
15.974848660054
 31
0.0
  0
LINE
  5
2EB
330
2C9
100
AcDbEntity
  8
PROFILE
  6
AUSGEZOGEN
 62
    16
420
  8388608
370
    18
100
AcDbLine
 10
406.314420581559
 20
13.588834967526
 30
0.0
 11
404.875424899549
 21
15.027830649536
 31
0.0
  0
LINE
  5
2EC
330
2C9
100
AcDbEntity
  8
PROFILE
  6
AUSGEZOGEN
 62
    16
420
  8388608
370
    18
100
AcDbLine
 10
404.496617695342
 20
15.406637853743
 30
0.0
 11
404.496617695342
 21
15.406637853743
 31
0.0
  0
LINE
  5
2ED
330
2C9
100
AcDbEntity
  8
PROFILE
  6
AUSGEZOGEN
 62
    16
420
  8388608
370
    18
100
AcDbLine
 10
404.117810491135
 20
15.78544505795
 30
0.0
 11
403.59299201013
 21
16.310263538954
 31
0.0
  0
LINE
  5
2EE
330
2C9
100
AcDbEntity
  8
PROFILE
  6
AUSGEZOGEN
 62
    16
420
  8388608
370
    18
100
AcDbLine
 10
407.829649398387
 20
13.588834967526
 30
0.0
 11
406.958864522688
 21
14.459619843225
 31
0.0
  0
LINE
  5
2EF
330
2C9
100
AcDbEntity
  8
PROFILE
  6
AUSGEZOGEN
 62
    16
420
  8388608
370
    18
100
AcDbLine
 10
406.580057318481
 20
14.838427047432
 30
0.0
 11
406.580057318481
 21
14.838427047432
 31
0.0
  0
LINE
  5
2F0
330
2C9
100
AcDbEntity
  8
PROFILE
  6
AUSGEZOGEN
 62
    16
420
  8388608
370
    18
100
AcDbLine
 10
406.201250114274
 20
15.217234251639
 30
0.0
 11
405.108220826959
 21
16.310263538954
 31
0.0
  0
LINE
  5
2F1
330
2C9
100
AcDbEntity
  8
PROFILE
  6
AUSGEZOGEN
 62
    16
420
  8388608
370
    18
100
AcDbLine
 10
409.344878215216
 20
13.588834967526
 30
0.0
 11
409.042304145827
 21
13.891409036915
 31
0.0
  0
LINE
  5
2F2
330
2C9
100
AcDbEntity
  8
PROFILE
  6
AUSGEZOGEN
 62
    16
420
  8388608
370
    18
100
AcDbLine
 10
408.66349694162
 20
14.270216241122
 30
0.0
 11
408.66349694162
 21
14.270216241122
 31
0.0
  0
LINE
  5
2F3
330
2C9
100
AcDbEntity
  8
PROFILE
  6
AUSGEZOGEN
 62
    16
420
  8388608
370
    18
100
AcDbLine
 10
408.284689737413
 20
14.649023445329
 30
0.0
 11
406.623449643787
 21
16.310263538954
 31
0.0
  0
LINE
  5
2F4
330
2C9
100
AcDbEntity
  8
PROFILE
  6
AUSGEZOGEN
 62
    16
420
  8388608
370
    18
100
AcDbLine
 10
410.746936564759
 20
13.702005434811
 30
0.0
 11
410.746936564759
 21
13.702005434811
 31
0.0
  0
LINE
  5
2F5
330
2C9
100
AcDbEntity
  8
PROFILE
  6
AUSGEZOGEN
 62
    16
420
  8388608
370
    18
100
AcDbLine
 10
410.368129360552
 20
14.080812639018
 30
0.0
 11
408.474093339516
 21
15.974848660054
 31
0.0
  0
LINE
  5
2F6
330
2C9
100
AcDbEntity
  8
PROFILE
  6
AUSGEZOGEN
 62
    16
420
  8388608
370
    18
100
AcDbLine
 10
412.375335848872
 20
13.588834967526
 30
0.0
 11
410.557532962655
 21
15.406637853743
 31
0.0
  0
LINE
  5
2F7
330
2C9
100
AcDbEntity
  8
PROFILE
  6
AUSGEZOGEN
 62
    16
420
  8388608
370
    18
100
AcDbLine
 10
410.178725758448
 20
15.78544505795
 30
0.0
 11
410.178725758448
 21
15.78544505795
 31
0.0
  0
LINE
  5
2F8
330
2C9
100
AcDbEntity
  8
PROFILE
  6
AUSGEZOGEN
 62
    16
420
  8388608
370
    18
100
AcDbLine
 10
409.799918554241
 20
16.164252262157
 30
0.0
 11
409.653907277444
 21
16.310263538954
 31
0.0
  0
LINE
  5
2F9
330
2C9
100
AcDbEntity
  8
PROFILE
  6
AUSGEZOGEN
 62
    16
420
  8388608
370
    18
100
AcDbLine
 10
413.890564665701
 20
13.588834967526
 30
0.0
 11
412.640972585794
 21
14.838427047432
 31
0.0
  0
LINE
  5
2FA
330
2C9
100
AcDbEntity
  8
PROFILE
  6
AUSGEZOGEN
 62
    16
420
  8388608
370
    18
100
AcDbLine
 10
412.262165381587
 20
15.217234251639
 30
0.0
 11
412.262165381587
 21
15.217234251639
 31
0.0
  0
LINE
  5
2FB
330
2C9
100
AcDbEntity
  8
PROFILE
  6
AUSGEZOGEN
 62
    16
420
  8388608
370
    18
100
AcDbLine
 10
411.88335817738
 20
15.596041455847
 30
0.0
 11
411.169136094272
 21
16.310263538954
 31
0.0
  0
LINE
  5
2FC
330
2C9
100
AcDbEntity
  8
PROFILE
  6
AUSGEZOGEN
 62
    16
420
  8388608
370
    18
100
AcDbLine
 10
415.405793482529
 20
13.588834967526
 30
0.0
 11
414.724412208933
 21
14.270216241122
 31
0.0
  0
LINE
  5
2FD
330
2C9
100
AcDbEntity
  8
PROFILE
  6
AUSGEZOGEN
 62
    16
420
  8388608
370
    18
100
AcDbLine
 10
414.345605004726
 20
14.649023445329
 30
0.0
 11
414.345605004726
 21
14.649023445329
 31
0.0
  0
LINE
  5
2FE
330
2C9
100
AcDbEntity
  8
PROFILE
  6
AUSGEZOGEN
 62
    16
420
  8388608
370
    18
100
AcDbLine
 10
413.966797800519
 20
15.027830649536
 30
0.0
 11
412.6843649111
 21
16.310263538954
 31
0.0
  0
LINE
  5
2FF
330
2C9
100
AcDbEntity
  8
PROFILE
  6
AUSGEZOGEN
 62
    16
420
  8388608
370
    18
100
AcDbLine
 10
416.921022299357
 20
13.588834967526
 30
0.0
 11
416.807851832072
 21
13.702005434811
 31
0.0
  0
LINE
  5
300
330
2C9
100
AcDbEntity
  8
PROFILE
  6
AUSGEZOGEN
 62
    16
420
  8388608
370
    18
100
AcDbLine
 10
416.429044627865
 20
14.080812639018
 30
0.0
 11
416.429044627865
 21
14.080812639018
 31
0.0
  0
LINE
  5
301
330
2C9
100
AcDbEntity
  8
PROFILE
  6
AUSGEZOGEN
 62
    16
420
  8388608
370
    18
100
AcDbLine
 10
416.050237423658
 20
14.459619843225
 30
0.0
 11
414.199593727929
 21
16.310263538954
 31
0.0
  0
LINE
  5
302
330
2C9
100
AcDbEntity
  8
PROFILE
  6
AUSGEZOGEN
 62
    16
420
  8388608
370
    18
100
AcDbLine
 10
418.133677046797
 20
13.891409036915
 30
0.0
 11
416.239641025761
 21
15.78544505795
 31
0.0
  0
LINE
  5
303
330
2C9
100
AcDbEntity
  8
PROFILE
  6
AUSGEZOGEN
 62
    16
420
  8388608
370
    18
100
AcDbLine
 10
415.860833821554
 20
16.164252262157
 30
0.0
 11
415.860833821554
 21
16.164252262157
 31
0.0
  0
LINE
  5
304
330
2C9
100
AcDbEntity
  8
PROFILE
  6
AUSGEZOGEN
 62
    16
420
  8388608
370
    18
100
AcDbLine
 10
419.928551636426
 20
13.611763264114
 30
0.0
 11
418.3230806489
 21
15.217234251639
 31
0.0
  0
LINE
  5
305
330
2C9
100
AcDbEntity
  8
PROFILE
  6
AUSGEZOGEN
 62
    16
420
  8388608
370
    18
100
AcDbLine
 10
417.944273444693
 20
15.596041455847
 30
0.0
 11
417.944273444693
 21
15.596041455847
 31
0.0
  0
LINE
  5
306
330
2C9
100
AcDbEntity
  8
PROFILE
  6
AUSGEZOGEN
 62
    16
420
  8388608
370
    18
100
AcDbLine
 10
417.565466240486
 20
15.974848660054
 30
0.0
 11
417.207123064997
 21
16.333191835542
 31
0.0
  0
LINE
  5
307
330
2C9
100
AcDbEntity
  8
PROFILE
  6
AUSGEZOGEN
 62
    16
420
  8388608
370
    18
100
AcDbLine
 10
419.648905863625
 20
15.406637853743
 30
0.0
 11
417.75486984259
 21
17.300673874778
 31
0.0
  0
LINE
  5
308
330
2C9
100
AcDbEntity
  8
PROFILE
  6
AUSGEZOGEN
 62
    16
420
  8388608
370
    18
100
AcDbLine
 10
417.376062638383
 20
17.679481078985
 30
0.0
 11
417.376062638383
 21
17.679481078985
 31
0.0
  0
LINE
  5
309
330
2C9
100
AcDbEntity
  8
PROFILE
  6
AUSGEZOGEN
 62
    16
420
  8388608
370
    18
100
AcDbLine
 10
419.928551636426
 20
16.64222089777
 30
0.0
 11
419.838309465729
 21
16.732463068468
 31
0.0
  0
LINE
  5
30A
330
2C9
100
AcDbEntity
  8
PROFILE
  6
AUSGEZOGEN
 62
    16
420
  8388608
370
    18
100
AcDbLine
 10
419.459502261521
 20
17.111270272675
 30
0.0
 11
419.459502261521
 21
17.111270272675
 31
0.0
  0
LINE
  5
30B
330
2C9
100
AcDbEntity
  8
PROFILE
  6
AUSGEZOGEN
 62
    16
420
  8388608
370
    18
100
AcDbLine
 10
419.080695057314
 20
17.490077476882
 30
0.0
 11
417.207123064997
 21
19.363649469199
 31
0.0
  0
LINE
  5
30C
330
2C9
100
AcDbEntity
  8
PROFILE
  6
AUSGEZOGEN
 62
    16
420
  8388608
370
    18
100
AcDbLine
 10
419.928551636426
 20
18.157449714599
 30
0.0
 11
419.270098659418
 21
18.815902691607
 31
0.0
  0
LINE
  5
30D
330
2C9
100
AcDbEntity
  8
PROFILE
  6
AUSGEZOGEN
 62
    16
420
  8388608
370
    18
100
AcDbLine
 10
418.891291455211
 20
19.194709895814
 30
0.0
 11
418.891291455211
 21
19.194709895814
 31
0.0
  0
LINE
  5
30E
330
2C9
100
AcDbEntity
  8
PROFILE
  6
AUSGEZOGEN
 62
    16
420
  8388608
370
    18
100
AcDbLine
 10
418.512484251004
 20
19.573517100021
 30
0.0
 11
417.207123064997
 21
20.878878286027
 31
0.0
  0
LINE
  5
30F
330
2C9
100
AcDbEntity
  8
PROFILE
  6
AUSGEZOGEN
 62
    16
420
  8388608
370
    18
100
AcDbLine
 10
419.928551636426
 20
19.672678531427
 30
0.0
 11
418.701887853107
 21
20.899342314746
 31
0.0
  0
LINE
  5
310
330
2C9
100
AcDbEntity
  8
PROFILE
  6
AUSGEZOGEN
 62
    16
420
  8388608
370
    18
100
AcDbLine
 10
418.3230806489
 20
21.278149518953
 30
0.0
 11
418.3230806489
 21
21.278149518953
 31
0.0
  0
LINE
  5
311
330
2C9
100
AcDbEntity
  8
PROFILE
  6
AUSGEZOGEN
 62
    16
420
  8388608
370
    18
100
AcDbLine
 10
417.944273444693
 20
21.65695672316
 30
0.0
 11
417.207123064997
 21
22.394107102856
 31
0.0
  0
LINE
  5
312
330
2C9
100
AcDbEntity
  8
PROFILE
  6
AUSGEZOGEN
 62
    16
420
  8388608
370
    18
100
AcDbLine
 10
419.928551636426
 20
21.187907348255
 30
0.0
 11
418.133677046797
 21
22.982781937885
 31
0.0
  0
LINE
  5
313
330
2C9
100
AcDbEntity
  8
PROFILE
  6
AUSGEZOGEN
 62
    16
420
  8388608
370
    18
100
AcDbLine
 10
417.75486984259
 20
23.361589142092
 30
0.0
 11
417.75486984259
 21
23.361589142092
 31
0.0
  0
LINE
  5
314
330
2C9
100
AcDbEntity
  8
PROFILE
  6
AUSGEZOGEN
 62
    16
420
  8388608
370
    18
100
AcDbLine
 10
417.376062638383
 20
23.740396346299
 30
0.0
 11
417.207123064997
 21
23.909335919684
 31
0.0
  0
LINE
  5
315
330
2C9
100
AcDbEntity
  8
PROFILE
  6
AUSGEZOGEN
 62
    16
420
  8388608
370
    18
100
AcDbLine
 10
419.838309465729
 20
22.793378335781
 30
0.0
 11
419.838309465729
 21
22.793378335781
 31
0.0
  0
LINE
  5
316
330
2C9
100
AcDbEntity
  8
PROFILE
  6
AUSGEZOGEN
 62
    16
420
  8388608
370
    18
100
AcDbLine
 10
419.459502261521
 20
23.172185539988
 30
0.0
 11
417.565466240486
 21
25.066221561024
 31
0.0
  0
LINE
  5
317
330
2C9
100
AcDbEntity
  8
PROFILE
  6
AUSGEZOGEN
 62
    16
420
  8388608
370
    18
100
AcDbLine
 10
419.928551636426
 20
24.218364981912
 30
0.0
 11
419.648905863625
 21
24.498010754713
 31
0.0
  0
LINE
  5
318
330
2C9
100
AcDbEntity
  8
PROFILE
  6
AUSGEZOGEN
 62
    16
420
  8388608
370
    18
100
AcDbLine
 10
419.270098659418
 20
24.87681795892
 30
0.0
 11
419.270098659418
 21
24.87681795892
 31
0.0
  0
LINE
  5
319
330
2C9
100
AcDbEntity
  8
PROFILE
  6
AUSGEZOGEN
 62
    16
420
  8388608
370
    18
100
AcDbLine
 10
418.891291455211
 20
25.255625163127
 30
0.0
 11
417.207123064997
 21
26.93979355334
 31
0.0
  0
LINE
  5
31A
330
2C9
100
AcDbEntity
  8
PROFILE
  6
AUSGEZOGEN
 62
    16
420
  8388608
370
    18
100
AcDbLine
 10
419.928551636426
 20
25.73359379874
 30
0.0
 11
419.080695057314
 21
26.581450377852
 31
0.0
  0
LINE
  5
31B
330
2C9
100
AcDbEntity
  8
PROFILE
  6
AUSGEZOGEN
 62
    16
420
  8388608
370
    18
100
AcDbLine
 10
418.701887853107
 20
26.960257582059
 30
0.0
 11
418.701887853107
 21
26.960257582059
 31
0.0
  0
LINE
  5
31C
330
2C9
100
AcDbEntity
  8
PROFILE
  6
AUSGEZOGEN
 62
    16
420
  8388608
370
    18
100
AcDbLine
 10
418.3230806489
 20
27.339064786266
 30
0.0
 11
417.207123064997
 21
28.455022370169
 31
0.0
  0
LINE
  5
31D
330
2C9
100
AcDbEntity
  8
PROFILE
  6
AUSGEZOGEN
 62
    16
420
  8388608
370
    18
100
AcDbLine
 10
419.928551636426
 20
27.248822615569
 30
0.0
 11
418.512484251004
 21
28.664890000991
 31
0.0
  0
LINE
  5
31E
330
2C9
100
AcDbEntity
  8
PROFILE
  6
AUSGEZOGEN
 62
    16
420
  8388608
370
    18
100
AcDbLine
 10
418.133677046797
 20
29.043697205198
 30
0.0
 11
418.133677046797
 21
29.043697205198
 31
0.0
  0
LINE
  5
31F
330
2C9
100
AcDbEntity
  8
PROFILE
  6
AUSGEZOGEN
 62
    16
420
  8388608
370
    18
100
AcDbLine
 10
417.75486984259
 20
29.422504409405
 30
0.0
 11
417.259967855897
 21
29.917406396097
 31
0.0
  0
LINE
  5
320
330
2C9
100
AcDbEntity
  8
PROFILE
  6
AUSGEZOGEN
 62
    16
420
  8388608
370
    18
100
AcDbLine
 10
419.838309465729
 20
28.854293603094
 30
0.0
 11
418.775196672726
 21
29.917406396097
 31
0.0
  0
ENDBLK
  5
2CB
330
2C9
100
AcDbEntity
  8
0
100
AcDbBlockEnd
  0
ENDSEC
  0
SECTION
  2
ENTITIES
  0
INSERT
  5
324
330
1F
100
AcDbEntity
  8
0
100
AcDbBlockReference
  2
Inch
 10
0.0
 20
0.0
 30
0.0
 41
0.03937007874
 42
0.03937007874
 43
0.03937007874
  0
ENDSEC
  0
SECTION
  2
OBJECTS
  0
DICTIONARY
  5
C
330
0
100
AcDbDictionary
281
     1
  3
ACAD_DETAILVIEWSTYLE
350
362
  3
ACAD_GROUP
350
D
  3
ACAD_LAYOUT
350
1A
  3
ACAD_MATERIAL
350
43
  3
ACAD_MLEADERSTYLE
350
361
  3
ACAD_MLINESTYLE
350
17
  3
ACAD_PLOTSETTINGS
350
19
  3
ACAD_PLOTSTYLENAME
350
E
  3
ACAD_SCALELIST
350
47
  3
ACAD_SECTIONVIEWSTYLE
350
363
  3
ACAD_TABLESTYLE
350
360
  3
ACAD_VISUALSTYLE
350
2A
  3
ACAD_WIPEOUT_VARS
350
6A
  3
AcDbVariableDictionary
350
327
  0
DICTIONARY
  5
325
330
8
100
AcDbDictionary
280
     1
281
     1
  3
ACAD_XREC_ROUNDTRIP
360
326
  0
DICTIONARY
  5
362
102
{ACAD_REACTORS
330
C
102
}
330
C
100
AcDbDictionary
281
     1
  0
DICTIONARY
  5
D
102
{ACAD_REACTORS
330
C
102
}
330
C
100
AcDbDictionary
281
     1
  0
DICTIONARY
  5
1A
102
{ACAD_REACTORS
330
C
102
}
330
C
100
AcDbDictionary
281
     1
  3
Layout1
350
1E
  3
Layout2
350
26
  3
Model
350
22
  0
DICTIONARY
  5
43
102
{ACAD_REACTORS
330
C
102
}
330
C
100
AcDbDictionary
281
     1
  3
ByBlock
350
45
  3
ByLayer
350
44
  3
Global
350
46
  0
DICTIONARY
  5
361
102
{ACAD_REACTORS
330
C
102
}
330
C
100
AcDbDictionary
281
     1
  0
DICTIONARY
  5
17
102
{ACAD_REACTORS
330
C
102
}
330
C
100
AcDbDictionary
281
     1
  3
Standard
350
18
  0
DICTIONARY
  5
19
102
{ACAD_REACTORS
330
C
102
}
330
C
100
AcDbDictionary
281
     1
  0
ACDBDICTIONARYWDFLT
  5
E
102
{ACAD_REACTORS
330
C
102
}
330
C
100
AcDbDictionary
281
     1
  3
Normal
350
F
100
AcDbDictionaryWithDefault
340
F
  0
DICTIONARY
  5
47
102
{ACAD_REACTORS
330
C
102
}
330
C
100
AcDbDictionary
281
     1
  3
A0
350
48
  3
A1
350
49
  3
A2
350
4A
  3
A3
350
4B
  3
A4
350
4C
  3
A5
350
4D
  3
A6
350
4E
  3
A7
350
4F
  3
A8
350
50
  3
A9
350
51
  3
B0
350
52
  3
B1
350
53
  3
B2
350
54
  3
B3
350
55
  3
B4
350
56
  3
B5
350
57
  3
B6
350
58
  3
B7
350
59
  3
B8
350
5A
  3
B9
350
5B
  3
C0
350
5C
  3
C1
350
5D
  3
C2
350
5E
  3
C3
350
5F
  3
C4
350
60
  3
C5
350
61
  3
C6
350
62
  3
C7
350
63
  3
C8
350
64
  3
C9
350
65
  3
D0
350
66
  3
D1
350
67
  3
D2
350
68
  0
DICTIONARY
  5
363
102
{ACAD_REACTORS
330
C
102
}
330
C
100
AcDbDictionary
281
     1
  0
DICTIONARY
  5
360
102
{ACAD_REACTORS
330
C
102
}
330
C
100
AcDbDictionary
281
     1
  0
DICTIONARY
  5
2A
102
{ACAD_REACTORS
330
C
102
}
330
C
100
AcDbDictionary
281
     1
  3
2dWireframe
350
2F
  3
Basic
350
32
  3
Brighten
350
36
  3
ColorChange
350
3A
  3
Conceptual
350
34
  3
Dim
350
35
  3
EdgeColorOff
350
3D
  3
Facepattern
350
39
  3
Flat
350
2B
  3
FlatWithEdges
350
2C
  3
Gouraud
350
2D
  3
GouraudWithEdges
350
2E
  3
Hidden
350
31
  3
JitterOff
350
3B
  3
Linepattern
350
38
  3
OverhangOff
350
3C
  3
Realistic
350
33
  3
Shaded
350
42
  3
Shaded with edges
350
41
  3
Shades of Gray
350
3E
  3
Sketchy
350
3F
  3
Thicken
350
37
  3
Wireframe
350
30
  3
X-Ray
350
40
  0
WIPEOUTVARIABLES
  5
6A
102
{ACAD_REACTORS
330
C
102
}
330
C
100
AcDbWipeoutVariables
 70
     0
  0
DICTIONARY
  5
327
102
{ACAD_REACTORS
330
C
102
}
330
C
100
AcDbDictionary
281
     1
  3
CANNOSCALE
350
328
  3
MSLTSCALE
350
329
  0
XRECORD
  5
326
102
{ACAD_REACTORS
330
325
102
}
330
325
100
AcDbXrecord
280
     1
102
VTR_0.000_0.000_1.000_1.000_GRIDDISPLAY
 70
     3
102
VTR_0.000_0.000_1.000_1.000_GRIDMAJOR
 70
     5
102
VTR_0.000_0.000_1.000_1.000_DEFAULTLIGHTING
280
     1
102
VTR_0.000_0.000_1.000_1.000_DEFAULTLIGHTINGTYPE
 70
     1
102
VTR_0.000_0.000_1.000_1.000_BRIGHTNESS
141
0.0
102
VTR_0.000_0.000_1.000_1.000_CONTRAST
142
0.0
  0
LAYOUT
  5
1E
102
{ACAD_REACTORS
330
1A
102
}
330
1A
100
AcDbPlotSettings
  1

  2
none_device
  4

  6

 40
0.0
 41
0.0
 42
0.0
 43
0.0
 44
0.0
 45
0.0
 46
0.0
 47
0.0
 48
0.0
 49
0.0
140
0.0
141
0.0
142
1.0
143
1.0
 70
   688
 72
     1
 73
     0
 74
     5
  7

 75
    16
 76
     0
 77
     2
 78
   300
147
1.0
148
0.0
149
0.0
100
AcDbLayout
  1
Layout1
 70
     1
 71
     1
 10
0.0
 20
0.0
 11
420.0
 21
297.0
 12
0.0
 22
0.0
 32
0.0
 14
1.000000000000E+20
 24
1.000000000000E+20
 34
1.000000000000E+20
 15
-1.000000000000E+20
 25
-1.000000000000E+20
 35
-1.000000000000E+20
146
0.0
 13
0.0
 23
0.0
 33
0.0
 16
1.0
 26
0.0
 36
0.0
 17
0.0
 27
1.0
 37
0.0
 76
     0
330
1B
  0
LAYOUT
  5
26
102
{ACAD_REACTORS
330
1A
102
}
330
1A
100
AcDbPlotSettings
  1

  2
none_device
  4

  6

 40
0.0
 41
0.0
 42
0.0
 43
0.0
 44
0.0
 45
0.0
 46
0.0
 47
0.0
 48
0.0
 49
0.0
140
0.0
141
0.0
142
1.0
143
1.0
 70
   688
 72
     1
 73
     0
 74
     5
  7

 75
    16
 76
     0
 77
     2
 78
   300
147
1.0
148
0.0
149
0.0
100
AcDbLayout
  1
Layout2
 70
     1
 71
     2
 10
0.0
 20
0.0
 11
0.0
 21
0.0
 12
0.0
 22
0.0
 32
0.0
 14
0.0
 24
0.0
 34
0.0
 15
0.0
 25
0.0
 35
0.0
146
0.0
 13
0.0
 23
0.0
 33
0.0
 16
1.0
 26
0.0
 36
0.0
 17
0.0
 27
1.0
 37
0.0
 76
     0
330
23
  0
LAYOUT
  5
22
102
{ACAD_REACTORS
330
1A
102
}
330
1A
100
AcDbPlotSettings
  1

  2
none_device
  4
Letter_(8.50_x_11.00_Inches)
  6

 40
6.35
 41
6.35
 42
6.35000508
 43
6.35000508
 44
215.9
 45
279.4
 46
0.0
 47
0.0
 48
0.0
 49
0.0
140
0.0
141
0.0
142
1.0
143
1.0
 70
  1712
 72
     1
 73
     0
 74
     0
  7

 75
     0
 76
     0
 77
     2
 78
   300
147
1.0
148
0.0
149
0.0
100
AcDbLayout
  1
Model
 70
     1
 71
     0
 10
0.0
 20
0.0
 11
420.0
 21
297.0
 12
0.0
 22
0.0
 32
0.0
 14
-0.672363239575
 24
-5.864050485185
 34
0.0
 15
26.480893755837
 25
5.480249514815
 35
0.0
146
0.0
 13
0.0
 23
0.0
 33
0.0
 16
1.0
 26
0.0
 36
0.0
 17
0.0
 27
1.0
 37
0.0
 76
     0
330
1F
331
29
  0
MATERIAL
  5
45
102
{ACAD_REACTORS
330
43
102
}
102
{ACAD_XDICTIONARY
360
35C
102
}
330
43
100
AcDbMaterial
  1
ByBlock
  0
MATERIAL
  5
44
102
{ACAD_REACTORS
330
43
102
}
102
{ACAD_XDICTIONARY
360
35A
102
}
330
43
100
AcDbMaterial
  1
ByLayer
  0
MATERIAL
  5
46
102
{ACAD_REACTORS
330
43
102
}
102
{ACAD_XDICTIONARY
360
35E
102
}
330
43
100
AcDbMaterial
  1
Global
  0
MLINESTYLE
  5
18
102
{ACAD_REACTORS
330
17
102
}
330
17
100
AcDbMlineStyle
  2
Standard
 70
     0
  3

 62
   256
 51
90.0
 52
90.0
 71
     2
 49
0.5
 62
   256
  6
BYLAYER
 49
-0.5
 62
   256
  6
BYLAYER
  0
ACDBPLACEHOLDER
  5
F
102
{ACAD_REACTORS
330
E
102
}
330
E
  0
SCALE
  5
48
102
{ACAD_REACTORS
330
47
102
}
330
47
100
AcDbScale
 70
     0
300
1:1
140
1.0
141
1.0
290
     1
  0
SCALE
  5
49
102
{ACAD_REACTORS
330
47
102
}
330
47
100
AcDbScale
 70
     0
300
1:2
140
1.0
141
2.0
290
     0
  0
SCALE
  5
4A
102
{ACAD_REACTORS
330
47
102
}
330
47
100
AcDbScale
 70
     0
300
1:4
140
1.0
141
4.0
290
     0
  0
SCALE
  5
4B
102
{ACAD_REACTORS
330
47
102
}
330
47
100
AcDbScale
 70
     0
300
1:5
140
1.0
141
5.0
290
     0
  0
SCALE
  5
4C
102
{ACAD_REACTORS
330
47
102
}
330
47
100
AcDbScale
 70
     0
300
1:8
140
1.0
141
8.0
290
     0
  0
SCALE
  5
4D
102
{ACAD_REACTORS
330
47
102
}
330
47
100
AcDbScale
 70
     0
300
1:10
140
1.0
141
10.0
290
     0
  0
SCALE
  5
4E
102
{ACAD_REACTORS
330
47
102
}
330
47
100
AcDbScale
 70
     0
300
1:16
140
1.0
141
16.0
290
     0
  0
SCALE
  5
4F
102
{ACAD_REACTORS
330
47
102
}
330
47
100
AcDbScale
 70
     0
300
1:20
140
1.0
141
20.0
290
     0
  0
SCALE
  5
50
102
{ACAD_REACTORS
330
47
102
}
330
47
100
AcDbScale
 70
     0
300
1:30
140
1.0
141
30.0
290
     0
  0
SCALE
  5
51
102
{ACAD_REACTORS
330
47
102
}
330
47
100
AcDbScale
 70
     0
300
1:40
140
1.0
141
40.0
290
     0
  0
SCALE
  5
52
102
{ACAD_REACTORS
330
47
102
}
330
47
100
AcDbScale
 70
     0
300
1:50
140
1.0
141
50.0
290
     0
  0
SCALE
  5
53
102
{ACAD_REACTORS
330
47
102
}
330
47
100
AcDbScale
 70
     0
300
1:100
140
1.0
141
100.0
290
     0
  0
SCALE
  5
54
102
{ACAD_REACTORS
330
47
102
}
330
47
100
AcDbScale
 70
     0
300
2:1
140
2.0
141
1.0
290
     0
  0
SCALE
  5
55
102
{ACAD_REACTORS
330
47
102
}
330
47
100
AcDbScale
 70
     0
300
4:1
140
4.0
141
1.0
290
     0
  0
SCALE
  5
56
102
{ACAD_REACTORS
330
47
102
}
330
47
100
AcDbScale
 70
     0
300
8:1
140
8.0
141
1.0
290
     0
  0
SCALE
  5
57
102
{ACAD_REACTORS
330
47
102
}
330
47
100
AcDbScale
 70
     0
300
10:1
140
10.0
141
1.0
290
     0
  0
SCALE
  5
58
102
{ACAD_REACTORS
330
47
102
}
330
47
100
AcDbScale
 70
     0
300
100:1
140
100.0
141
1.0
290
     0
  0
SCALE
  5
59
102
{ACAD_REACTORS
330
47
102
}
330
47
100
AcDbScale
 70
     0
300
1/128" = 1'-0"
140
0.0078125
141
12.0
290
     0
  0
SCALE
  5
5A
102
{ACAD_REACTORS
330
47
102
}
330
47
100
AcDbScale
 70
     0
300
1/64" = 1'-0"
140
0.015625
141
12.0
290
     0
  0
SCALE
  5
5B
102
{ACAD_REACTORS
330
47
102
}
330
47
100
AcDbScale
 70
     0
300
1/32" = 1'-0"
140
0.03125
141
12.0
290
     0
  0
SCALE
  5
5C
102
{ACAD_REACTORS
330
47
102
}
330
47
100
AcDbScale
 70
     0
300
1/16" = 1'-0"
140
0.0625
141
12.0
290
     0
  0
SCALE
  5
5D
102
{ACAD_REACTORS
330
47
102
}
330
47
100
AcDbScale
 70
     0
300
3/32" = 1'-0"
140
0.09375
141
12.0
290
     0
  0
SCALE
  5
5E
102
{ACAD_REACTORS
330
47
102
}
330
47
100
AcDbScale
 70
     0
300
1/8" = 1'-0"
140
0.125
141
12.0
290
     0
  0
SCALE
  5
5F
102
{ACAD_REACTORS
330
47
102
}
330
47
100
AcDbScale
 70
     0
300
3/16" = 1'-0"
140
0.1875
141
12.0
290
     0
  0
SCALE
  5
60
102
{ACAD_REACTORS
330
47
102
}
330
47
100
AcDbScale
 70
     0
300
1/4" = 1'-0"
140
0.25
141
12.0
290
     0
  0
SCALE
  5
61
102
{ACAD_REACTORS
330
47
102
}
330
47
100
AcDbScale
 70
     0
300
3/8" = 1'-0"
140
0.375
141
12.0
290
     0
  0
SCALE
  5
62
102
{ACAD_REACTORS
330
47
102
}
330
47
100
AcDbScale
 70
     0
300
1/2" = 1'-0"
140
0.5
141
12.0
290
     0
  0
SCALE
  5
63
102
{ACAD_REACTORS
330
47
102
}
330
47
100
AcDbScale
 70
     0
300
3/4" = 1'-0"
140
0.75
141
12.0
290
     0
  0
SCALE
  5
64
102
{ACAD_REACTORS
330
47
102
}
330
47
100
AcDbScale
 70
     0
300
1" = 1'-0"
140
1.0
141
12.0
290
     0
  0
SCALE
  5
65
102
{ACAD_REACTORS
330
47
102
}
330
47
100
AcDbScale
 70
     0
300
1-1/2" = 1'-0"
140
1.5
141
12.0
290
     0
  0
SCALE
  5
66
102
{ACAD_REACTORS
330
47
102
}
330
47
100
AcDbScale
 70
     0
300
3" = 1'-0"
140
3.0
141
12.0
290
     0
  0
SCALE
  5
67
102
{ACAD_REACTORS
330
47
102
}
330
47
100
AcDbScale
 70
     0
300
6" = 1'-0"
140
6.0
141
12.0
290
     0
  0
SCALE
  5
68
102
{ACAD_REACTORS
330
47
102
}
330
47
100
AcDbScale
 70
     0
300
1'-0" = 1'-0"
140
12.0
141
12.0
290
     0
  0
VISUALSTYLE
  5
2F
102
{ACAD_REACTORS
330
2A
102
}
102
{ACAD_XDICTIONARY
360
332
102
}
330
2A
100
AcDbVisualStyle
  2
2dWireframe
 70
     4
 71
     0
 72
     2
 73
     0
 90
        0
 40
0.6
 41
30.0
 62
     5
 63
     7
421
 16777215
 74
     1
 91
        4
 64
     7
 65
   257
 75
     1
175
     1
 42
1.0
 92
        0
 66
   257
 43
1.0
 76
     1
 77
     6
 78
     2
 67
     7
 79
     5
170
     0
171
     0
290
     0
174
     0
 93
        1
 44
0.0
173
     0
291
     0
 45
0.0
1001
ACAD
1000
AcDbSavedByObjectVersion
1070
     0
  0
VISUALSTYLE
  5
32
102
{ACAD_REACTORS
330
2A
102
}
102
{ACAD_XDICTIONARY
360
338
102
}
330
2A
100
AcDbVisualStyle
  2
Basic
 70
     7
 71
     1
 72
     0
 73
     1
 90
        0
 40
0.6
 41
30.0
 62
     5
 63
     7
421
 16777215
 74
     0
 91
        4
 64
     7
 65
   257
 75
     1
175
     1
 42
1.0
 92
        8
 66
     7
 43
1.0
 76
     1
 77
     6
 78
     2
 67
     7
 79
     5
170
     0
171
     0
290
     0
174
     0
 93
        1
 44
0.0
173
     0
291
     1
 45
0.0
1001
ACAD
1000
AcDbSavedByObjectVersion
1070
     0
  0
VISUALSTYLE
  5
36
102
{ACAD_REACTORS
330
2A
102
}
102
{ACAD_XDICTIONARY
360
340
102
}
330
2A
100
AcDbVisualStyle
  2
Brighten
 70
    12
 71
     2
 72
     2
 73
     0
 90
        0
 40
0.6
 41
30.0
 62
     5
 63
     7
421
 16777215
 74
     1
 91
        4
 64
     7
 65
   257
 75
     1
175
     1
 42
1.0
 92
        8
 66
     7
 43
1.0
 76
     1
 77
     6
 78
     2
 67
     7
 79
     5
170
     0
171
     0
290
     0
174
     0
 93
        1
 44
50.0
173
     0
291
     1
 45
0.0
1001
ACAD
1000
AcDbSavedByObjectVersion
1070
     0
  0
VISUALSTYLE
  5
3A
102
{ACAD_REACTORS
330
2A
102
}
102
{ACAD_XDICTIONARY
360
348
102
}
330
2A
100
AcDbVisualStyle
  2
ColorChange
 70
    16
 71
     2
 72
     2
 73
     3
 90
        0
 40
0.6
 41
30.0
 62
     5
 63
     8
421
  8421504
 74
     1
 91
        4
 64
     7
 65
   257
 75
     1
175
     1
 42
1.0
 92
        8
 66
     8
424
  8421504
 43
1.0
 76
     1
 77
     6
 78
     2
 67
     7
 79
     5
170
     0
171
     0
290
     0
174
     0
 93
        1
 44
0.0
173
     0
291
     1
 45
0.0
1001
ACAD
1000
AcDbSavedByObjectVersion
1070
     0
  0
VISUALSTYLE
  5
34
102
{ACAD_REACTORS
330
2A
102
}
102
{ACAD_XDICTIONARY
360
33C
102
}
330
2A
100
AcDbVisualStyle
  2
Conceptual
 70
     9
 71
     3
 72
     2
 73
     0
 90
        0
 40
0.6
 41
30.0
 62
     5
 63
     7
421
 16777215
 74
     2
 91
        2
 64
     7
 65
   257
 75
     1
175
     1
 42
179.0
 92
        8
 66
     7
 43
1.0
 76
     1
 77
     6
 78
     2
 67
     7
 79
     3
170
     0
171
     0
290
     0
174
     0
 93
        1
 44
0.0
173
     0
291
     0
 45
0.0
1001
ACAD
1000
AcDbSavedByObjectVersion
1070
     0
  0
VISUALSTYLE
  5
35
102
{ACAD_REACTORS
330
2A
102
}
102
{ACAD_XDICTIONARY
360
33E
102
}
330
2A
100
AcDbVisualStyle
  2
Dim
 70
    11
 71
     2
 72
     2
 73
     0
 90
        0
 40
0.6
 41
30.0
 62
     5
 63
     7
421
 16777215
 74
     1
 91
        4
 64
     7
 65
   257
 75
     1
175
     1
 42
1.0
 92
        8
 66
     7
 43
1.0
 76
     1
 77
     6
 78
     2
 67
     7
 79
     5
170
     0
171
     0
290
     0
174
     0
 93
        1
 44
-50.0
173
     0
291
     1
 45
0.0
1001
ACAD
1000
AcDbSavedByObjectVersion
1070
     0
  0
VISUALSTYLE
  5
3D
102
{ACAD_REACTORS
330
2A
102
}
102
{ACAD_XDICTIONARY
360
34E
102
}
330
2A
100
AcDbVisualStyle
  2
EdgeColorOff
 70
    22
 71
     2
 72
     2
 73
     0
 90
        0
 40
0.6
 41
30.0
 62
     5
 63
     7
421
 16777215
 74
     1
 91
        4
 64
     7
 65
   257
 75
     1
175
     1
 42
1.0
 92
        8
 66
     7
 43
1.0
 76
     1
 77
     6
 78
     2
 67
     7
 79
     5
170
     0
171
     0
290
     0
174
     0
 93
        1
 44
0.0
173
     0
291
     1
 45
0.0
1001
ACAD
1000
AcDbSavedByObjectVersion
1070
     0
  0
VISUALSTYLE
  5
39
102
{ACAD_REACTORS
330
2A
102
}
102
{ACAD_XDICTIONARY
360
346
102
}
330
2A
100
AcDbVisualStyle
  2
Facepattern
 70
    15
 71
     2
 72
     2
 73
     0
 90
        0
 40
0.6
 41
30.0
 62
     5
 63
     7
421
 16777215
 74
     1
 91
        4
 64
     7
 65
   257
 75
     1
175
     1
 42
1.0
 92
        8
 66
     7
 43
1.0
 76
     1
 77
     6
 78
     2
 67
     7
 79
     5
170
     0
171
     0
290
     0
174
     0
 93
        1
 44
0.0
173
     0
291
     1
 45
0.0
1001
ACAD
1000
AcDbSavedByObjectVersion
1070
     0
  0
VISUALSTYLE
  5
2B
102
{ACAD_REACTORS
330
2A
102
}
102
{ACAD_XDICTIONARY
360
32A
102
}
330
2A
100
AcDbVisualStyle
  2
Flat
 70
     0
 71
     2
 72
     1
 73
     1
 90
        2
 40
0.6
 41
30.0
 62
     5
 63
     7
421
 16777215
 74
     0
 91
        0
 64
     7
 65
   257
 75
     1
175
     1
 42
1.0
 92
        8
 66
     7
 43
1.0
 76
     1
 77
     6
 78
     2
 67
     7
 79
     5
170
     0
171
     0
290
     0
174
     0
 93
       13
 44
0.0
173
     0
291
     1
 45
0.0
1001
ACAD
1000
AcDbSavedByObjectVersion
1070
     0
  0
VISUALSTYLE
  5
2C
102
{ACAD_REACTORS
330
2A
102
}
102
{ACAD_XDICTIONARY
360
32C
102
}
330
2A
100
AcDbVisualStyle
  2
FlatWithEdges
 70
     1
 71
     2
 72
     1
 73
     1
 90
        2
 40
0.6
 41
30.0
 62
     5
 63
     7
421
 16777215
 74
     1
 91
        0
 64
     7
 65
   257
 75
     1
175
     1
 42
1.0
 92
        0
 66
   257
 43
1.0
 76
     1
 77
     6
 78
     2
 67
     7
 79
     5
170
     0
171
     0
290
     0
174
     0
 93
       13
 44
0.0
173
     0
291
     1
 45
0.0
1001
ACAD
1000
AcDbSavedByObjectVersion
1070
     0
  0
VISUALSTYLE
  5
2D
102
{ACAD_REACTORS
330
2A
102
}
102
{ACAD_XDICTIONARY
360
32E
102
}
330
2A
100
AcDbVisualStyle
  2
Gouraud
 70
     2
 71
     2
 72
     2
 73
     1
 90
        2
 40
0.6
 41
30.0
 62
     5
 63
     7
421
 16777215
 74
     0
 91
        0
 64
     7
 65
   257
 75
     1
175
     1
 42
1.0
 92
        0
 66
     7
 43
1.0
 76
     1
 77
     6
 78
     2
 67
     7
 79
     5
170
     0
171
     0
290
     0
174
     0
 93
       13
 44
0.0
173
     0
291
     1
 45
0.0
1001
ACAD
1000
AcDbSavedByObjectVersion
1070
     0
  0
VISUALSTYLE
  5
2E
102
{ACAD_REACTORS
330
2A
102
}
102
{ACAD_XDICTIONARY
360
330
102
}
330
2A
100
AcDbVisualStyle
  2
GouraudWithEdges
 70
     3
 71
     2
 72
     2
 73
     1
 90
        2
 40
0.6
 41
30.0
 62
     5
 63
     7
421
 16777215
 74
     1
 91
        0
 64
     7
 65
   257
 75
     1
175
     1
 42
1.0
 92
        0
 66
   257
 43
1.0
 76
     1
 77
     6
 78
     2
 67
     7
 79
     5
170
     0
171
     0
290
     0
174
     0
 93
       13
 44
0.0
173
     0
291
     1
 45
0.0
1001
ACAD
1000
AcDbSavedByObjectVersion
1070
     0
  0
VISUALSTYLE
  5
31
102
{ACAD_REACTORS
330
2A
102
}
102
{ACAD_XDICTIONARY
360
336
102
}
330
2A
100
AcDbVisualStyle
  2
Hidden
 70
     6
 71
     1
 72
     2
 73
     2
 90
        0
 40
0.6
 41
30.0
 62
     5
 63
     7
421
 16777215
 74
     2
 91
        2
 64
     7
 65
   257
 75
     2
175
     1
 42
40.0
 92
        0
 66
   257
 43
1.0
 76
     1
 77
     6
 78
     2
 67
     7
 79
     3
170
     0
171
     0
290
     0
174
     0
 93
        1
 44
0.0
173
     0
291
     0
 45
0.0
1001
ACAD
1000
AcDbSavedByObjectVersion
1070
     0
  0
VISUALSTYLE
  5
3B
102
{ACAD_REACTORS
330
2A
102
}
102
{ACAD_XDICTIONARY
360
34A
102
}
330
2A
100
AcDbVisualStyle
  2
JitterOff
 70
    20
 71
     2
 72
     2
 73
     0
 90
        0
 40
0.6
 41
30.0
 62
     5
 63
     7
421
 16777215
 74
     1
 91
        4
 64
     7
 65
   257
 75
     1
175
     1
 42
1.0
 92
       10
 66
     7
 43
1.0
 76
     1
 77
     6
 78
     2
 67
     7
 79
     5
170
     0
171
     0
290
     0
174
     0
 93
        1
 44
0.0
173
     0
291
     1
 45
0.0
1001
ACAD
1000
AcDbSavedByObjectVersion
1070
     0
  0
VISUALSTYLE
  5
38
102
{ACAD_REACTORS
330
2A
102
}
102
{ACAD_XDICTIONARY
360
344
102
}
330
2A
100
AcDbVisualStyle
  2
Linepattern
 70
    14
 71
     2
 72
     2
 73
     0
 90
        0
 40
0.6
 41
30.0
 62
     5
 63
     7
421
 16777215
 74
     1
 91
        4
 64
     7
 65
   257
 75
     7
175
     7
 42
1.0
 92
        8
 66
     7
 43
1.0
 76
     1
 77
     6
 78
     2
 67
     7
 79
     5
170
     0
171
     0
290
     0
174
     0
 93
        1
 44
0.0
173
     0
291
     1
 45
0.0
1001
ACAD
1000
AcDbSavedByObjectVersion
1070
     0
  0
VISUALSTYLE
  5
3C
102
{ACAD_REACTORS
330
2A
102
}
102
{ACAD_XDICTIONARY
360
34C
102
}
330
2A
100
AcDbVisualStyle
  2
OverhangOff
 70
    21
 71
     2
 72
     2
 73
     0
 90
        0
 40
0.6
 41
30.0
 62
     5
 63
     7
421
 16777215
 74
     1
 91
        4
 64
     7
 65
   257
 75
     1
175
     1
 42
1.0
 92
        9
 66
     7
 43
1.0
 76
     1
 77
     6
 78
     2
 67
     7
 79
     5
170
     0
171
     0
290
     0
174
     0
 93
        1
 44
0.0
173
     0
291
     1
 45
0.0
1001
ACAD
1000
AcDbSavedByObjectVersion
1070
     0
  0
VISUALSTYLE
  5
33
102
{ACAD_REACTORS
330
2A
102
}
102
{ACAD_XDICTIONARY
360
33A
102
}
330
2A
100
AcDbVisualStyle
  2
Realistic
 70
     8
 71
     2
 72
     3
 73
     0
 90
        2
 40
0.6
 41
30.0
 62
     5
 63
     7
421
 16777215
 74
     0
 91
        0
 64
     7
 65
   257
 75
     1
175
     1
 42
1.0
 92
        8
 66
   257
 43
1.0
 76
     1
 77
     6
 78
     2
 67
     7
 79
     3
170
     0
171
     0
290
     0
174
     0
 93
       13
 44
0.0
173
     0
291
     0
 45
0.0
1001
ACAD
1000
AcDbSavedByObjectVersion
1070
     0
  0
VISUALSTYLE
  5
42
102
{ACAD_REACTORS
330
2A
102
}
102
{ACAD_XDICTIONARY
360
358
102
}
330
2A
100
AcDbVisualStyle
  2
Shaded
 70
    27
 71
     2
 72
     2
 73
     1
 90
        2
 40
0.6
 41
30.0
 62
     5
 63
     7
421
 16777215
 74
     0
 91
        4
 64
     7
 65
   257
 75
     1
175
     1
 42
1.0
 92
        8
 66
   257
 43
1.0
 76
     1
 77
     6
 78
     2
 67
     8
425
  7895160
 79
     3
170
     0
171
     0
290
     0
174
     0
 93
        5
 44
0.0
173
     0
291
     0
 45
0.0
1001
ACAD
1000
AcDbSavedByObjectVersion
1070
     0
  0
VISUALSTYLE
  5
41
102
{ACAD_REACTORS
330
2A
102
}
102
{ACAD_XDICTIONARY
360
356
102
}
330
2A
100
AcDbVisualStyle
  2
Shaded with edges
 70
    26
 71
     2
 72
     2
 73
     1
 90
        2
 40
0.6
 41
30.0
 62
     5
 63
     7
421
 16777215
 74
     1
 91
       10
 64
     7
 65
   257
 75
     2
175
     1
 42
1.0
 92
        8
 66
   257
 43
1.0
 76
     1
 77
     6
 78
     2
 67
     7
 79
     3
170
     0
171
     0
290
     0
174
     0
 93
        5
 44
0.0
173
     0
291
     0
 45
0.0
1001
ACAD
1000
AcDbSavedByObjectVersion
1070
     0
  0
VISUALSTYLE
  5
3E
102
{ACAD_REACTORS
330
2A
102
}
102
{ACAD_XDICTIONARY
360
350
102
}
330
2A
100
AcDbVisualStyle
  2
Shades of Gray
 70
    23
 71
     2
 72
     2
 73
     3
 90
        0
 40
0.6
 41
30.0
 62
     5
 63
     7
421
 16777215
 74
     2
 91
        2
 64
     7
 65
     7
 75
     1
175
     1
 42
40.0
 92
        8
 66
     7
 43
1.0
 76
     1
 77
     6
 78
     2
 67
     7
 79
     3
170
     0
171
     0
290
     0
174
     0
 93
        1
 44
0.0
173
     0
291
     0
 45
0.0
1001
ACAD
1000
AcDbSavedByObjectVersion
1070
     0
  0
VISUALSTYLE
  5
3F
102
{ACAD_REACTORS
330
2A
102
}
102
{ACAD_XDICTIONARY
360
352
102
}
330
2A
100
AcDbVisualStyle
  2
Sketchy
 70
    24
 71
     1
 72
     2
 73
     2
 90
        0
 40
0.6
 41
30.0
 62
     5
 63
     7
421
 16777215
 74
     2
 91
        2
 64
     7
 65
     7
 75
     1
175
     1
 42
40.0
 92
       11
 66
     7
 43
1.0
 76
     1
 77
     6
 78
     2
 67
     7
 79
     6
170
     0
171
     0
290
     0
174
     0
 93
        1
 44
0.0
173
     0
291
     0
 45
0.0
1001
ACAD
1000
AcDbSavedByObjectVersion
1070
     0
  0
VISUALSTYLE
  5
37
102
{ACAD_REACTORS
330
2A
102
}
102
{ACAD_XDICTIONARY
360
342
102
}
330
2A
100
AcDbVisualStyle
  2
Thicken
 70
    13
 71
     2
 72
     2
 73
     0
 90
        0
 40
0.6
 41
30.0
 62
     5
 63
     7
421
 16777215
 74
     1
 91
        4
 64
     7
 65
   257
 75
     1
175
     1
 42
1.0
 92
       12
 66
     7
 43
1.0
 76
     1
 77
     6
 78
     2
 67
     7
 79
     5
170
     0
171
     0
290
     0
174
     0
 93
        1
 44
0.0
173
     0
291
     1
 45
0.0
1001
ACAD
1000
AcDbSavedByObjectVersion
1070
     0
  0
VISUALSTYLE
  5
30
102
{ACAD_REACTORS
330
2A
102
}
102
{ACAD_XDICTIONARY
360
334
102
}
330
2A
100
AcDbVisualStyle
  2
Wireframe
 70
     5
 71
     0
 72
     2
 73
     0
 90
        0
 40
0.6
 41
30.0
 62
     5
 63
     7
421
 16777215
 74
     1
 91
        4
 64
     7
 65
   257
 75
     1
175
     1
 42
1.0
 92
        0
 66
   257
 43
1.0
 76
     1
 77
     6
 78
     2
 67
     7
 79
     3
170
     0
171
     0
290
     0
174
     0
 93
        1
 44
0.0
173
     0
291
     0
 45
0.0
1001
ACAD
1000
AcDbSavedByObjectVersion
1070
     0
  0
VISUALSTYLE
  5
40
102
{ACAD_REACTORS
330
2A
102
}
102
{ACAD_XDICTIONARY
360
354
102
}
330
2A
100
AcDbVisualStyle
  2
X-Ray
 70
    25
 71
     2
 72
     2
 73
     1
 90
        1
 40
0.5
 41
30.0
 62
     5
 63
     7
421
 16777215
 74
     1
 91
        0
 64
     7
 65
   257
 75
     1
175
     1
 42
1.0
 92
        8
 66
     7
 43
1.0
 76
     1
 77
     6
 78
     2
 67
     7
 79
     3
170
     0
171
     0
290
     0
174
     0
 93
       13
 44
0.0
173
     0
291
     0
 45
0.0
1001
ACAD
1000
AcDbSavedByObjectVersion
1070
     0
  0
DICTIONARYVAR
  5
328
102
{ACAD_REACTORS
330
327
102
}
330
327
100
DictionaryVariables
280
     0
  1
1:1
  0
DICTIONARYVAR
  5
329
102
{ACAD_REACTORS
330
327
102
}
330
327
100
DictionaryVariables
280
     0
  1
1
  0
DICTIONARY
  5
35C
330
45
100
AcDbDictionary
280
     1
281
     1
  3
ACAD_XREC_ROUNDTRIP
360
35D
  0
DICTIONARY
  5
35A
330
44
100
AcDbDictionary
280
     1
281
     1
  3
ACAD_XREC_ROUNDTRIP
360
35B
  0
DICTIONARY
  5
35E
330
46
100
AcDbDictionary
280
     1
281
     1
  3
ACAD_XREC_ROUNDTRIP
360
35F
  0
DICTIONARY
  5
332
330
2F
100
AcDbDictionary
280
     1
281
     1
  3
ACAD_XREC_ROUNDTRIP
360
333
  0
DICTIONARY
  5
338
330
32
100
AcDbDictionary
280
     1
281
     1
  3
ACAD_XREC_ROUNDTRIP
360
339
  0
DICTIONARY
  5
340
330
36
100
AcDbDictionary
280
     1
281
     1
  3
ACAD_XREC_ROUNDTRIP
360
341
  0
DICTIONARY
  5
348
330
3A
100
AcDbDictionary
280
     1
281
     1
  3
ACAD_XREC_ROUNDTRIP
360
349
  0
DICTIONARY
  5
33C
330
34
100
AcDbDictionary
280
     1
281
     1
  3
ACAD_XREC_ROUNDTRIP
360
33D
  0
DICTIONARY
  5
33E
330
35
100
AcDbDictionary
280
     1
281
     1
  3
ACAD_XREC_ROUNDTRIP
360
33F
  0
DICTIONARY
  5
34E
330
3D
100
AcDbDictionary
280
     1
281
     1
  3
ACAD_XREC_ROUNDTRIP
360
34F
  0
DICTIONARY
  5
346
330
39
100
AcDbDictionary
280
     1
281
     1
  3
ACAD_XREC_ROUNDTRIP
360
347
  0
DICTIONARY
  5
32A
330
2B
100
AcDbDictionary
280
     1
281
     1
  3
ACAD_XREC_ROUNDTRIP
360
32B
  0
DICTIONARY
  5
32C
330
2C
100
AcDbDictionary
280
     1
281
     1
  3
ACAD_XREC_ROUNDTRIP
360
32D
  0
DICTIONARY
  5
32E
330
2D
100
AcDbDictionary
280
     1
281
     1
  3
ACAD_XREC_ROUNDTRIP
360
32F
  0
DICTIONARY
  5
330
330
2E
100
AcDbDictionary
280
     1
281
     1
  3
ACAD_XREC_ROUNDTRIP
360
331
  0
DICTIONARY
  5
336
330
31
100
AcDbDictionary
280
     1
281
     1
  3
ACAD_XREC_ROUNDTRIP
360
337
  0
DICTIONARY
  5
34A
330
3B
100
AcDbDictionary
280
     1
281
     1
  3
ACAD_XREC_ROUNDTRIP
360
34B
  0
DICTIONARY
  5
344
330
38
100
AcDbDictionary
280
     1
281
     1
  3
ACAD_XREC_ROUNDTRIP
360
345
  0
DICTIONARY
  5
34C
330
3C
100
AcDbDictionary
280
     1
281
     1
  3
ACAD_XREC_ROUNDTRIP
360
34D
  0
DICTIONARY
  5
33A
330
33
100
AcDbDictionary
280
     1
281
     1
  3
ACAD_XREC_ROUNDTRIP
360
33B
  0
DICTIONARY
  5
358
330
42
100
AcDbDictionary
280
     1
281
     1
  3
ACAD_XREC_ROUNDTRIP
360
359
  0
DICTIONARY
  5
356
330
41
100
AcDbDictionary
280
     1
281
     1
  3
ACAD_XREC_ROUNDTRIP
360
357
  0
DICTIONARY
  5
350
330
3E
100
AcDbDictionary
280
     1
281
     1
  3
ACAD_XREC_ROUNDTRIP
360
351
  0
DICTIONARY
  5
352
330
3F
100
AcDbDictionary
280
     1
281
     1
  3
ACAD_XREC_ROUNDTRIP
360
353
  0
DICTIONARY
  5
342
330
37
100
AcDbDictionary
280
     1
281
     1
  3
ACAD_XREC_ROUNDTRIP
360
343
  0
DICTIONARY
  5
334
330
30
100
AcDbDictionary
280
     1
281
     1
  3
ACAD_XREC_ROUNDTRIP
360
335
  0
DICTIONARY
  5
354
330
40
100
AcDbDictionary
280
     1
281
     1
  3
ACAD_XREC_ROUNDTRIP
360
355
  0
XRECORD
  5
35D
102
{ACAD_REACTORS
330
35C
102
}
330
35C
100
AcDbXrecord
280
     1
102
MATERIAL
148
0.0
149
0.0
149
0.0
 93
        0
 94
      127
282
     0
 72
     1
 77
     1
171
     1
175
     1
179
     1
273
     0
  0
XRECORD
  5
35B
102
{ACAD_REACTORS
330
35A
102
}
330
35A
100
AcDbXrecord
280
     1
102
MATERIAL
148
0.0
149
0.0
149
0.0
 93
        0
 94
      127
282
     0
 72
     1
 77
     1
171
     1
175
     1
179
     1
273
     0
  0
XRECORD
  5
35F
102
{ACAD_REACTORS
330
35E
102
}
330
35E
100
AcDbXrecord
280
     1
102
MATERIAL
148
0.0
149
0.0
149
0.0
 93
        0
 94
      127
282
     0
 72
     1
 77
     1
171
     1
175
     1
179
     1
273
     0
  0
XRECORD
  5
333
102
{ACAD_REACTORS
330
332
102
}
330
332
100
AcDbXrecord
280
     1
102
RTVSPropertyOp0
 70
     1
102
RTVSPropertyOp1
 70
     1
102
RTVSPropertyOp2
 70
     1
102
RTVSPropertyOp3
 70
     1
102
RTVSPropertyOp4
 70
     1
102
RTVSPropertyOp5
 70
     1
102
RTVSPropertyOp6
 70
     1
102
RTVSPropertyOp7
 70
     1
102
RTVSPropertyOp8
 70
     1
102
RTVSPropertyOp9
 70
     1
102
RTVSPropertyOp10
 70
     1
102
RTVSPropertyOp11
 70
     1
102
RTVSPropertyOp12
 70
     1
102
RTVSPropertyOp13
 70
     1
102
RTVSPropertyOp14
 70
     1
102
RTVSPropertyOp15
 70
     1
102
RTVSPropertyOp16
 70
     1
102
RTVSPropertyOp17
 70
     1
102
RTVSPropertyOp18
 70
     1
102
RTVSPropertyOp19
 70
     1
102
RTVSPropertyOp20
 70
     1
102
RTVSPropertyOp21
 70
     1
102
RTVSPropertyOp22
 70
     1
102
RTVSPropertyOp23
 70
     1
102
RTVSPropertyOp24
 70
     1
102
RTVSPropertyOp25
 70
     1
102
RTVSPropertyOp26
 70
     1
102
RTVSPropertyOp27
 70
     1
102
RTVSPropertyOp28
 70
     1
102
RTVSPropertyOp29
 70
     1
102
RTVSPropertyOp30
 70
     1
102
RTVSPropertyOp31
 70
     1
102
RTVSPropertyOp32
 70
     1
102
RTVSPropertyOp33
 70
     1
102
RTVSPropertyOp34
 70
     1
102
RTVSPropertyOp35
 70
     1
102
RTVSPropertyOp36
 70
     1
102
RTVSPropertyOp37
 70
     1
102
RTVSPropertyOp38
 70
     1
102
RTVSPropertyOp39
 70
     1
102
RTVSPropertyOp40
 70
     1
102
RTVSPropertyOp41
 70
     1
102
RTVSPropertyOp42
 70
     1
102
RTVSPropertyOp43
 70
     1
102
RTVSPropertyOp44
 70
     1
102
RTVSPropertyOp45
 70
     1
102
RTVSPropertyOp46
 70
     1
102
RTVSPropertyOp47
 70
     1
102
RTVSPropertyOp48
 70
     1
102
RTVSPropertyOp49
 70
     1
102
RTVSPropertyOp50
 70
     1
102
RTVSPropertyOp51
 70
     0
102
RTVSPropertyOp52
 70
     0
102
RTVSPropertyOp53
 70
     1
102
RTVSPropertyOp54
 70
     1
102
RTVSPropertyOp55
 70
     1
102
RTVSPropertyOp56
 70
     1
102
RTVSPropertyOp57
 70
     1
102
RTVSPost2010Prop28
280
     1
102
RTVSPost2010PropOp28
 70
     1
102
RTVSPost2010Prop29
280
     1
102
RTVSPost2010PropOp29
 70
     1
102
RTVSPost2010Prop30
280
     0
102
RTVSPost2010PropOp30
 70
     1
102
RTVSPost2010Prop31
280
     0
102
RTVSPost2010PropOp31
 70
     1
102
RTVSPost2010Prop32
280
     0
102
RTVSPost2010PropOp32
 70
     1
102
RTVSPost2010Prop33
280
     0
102
RTVSPost2010PropOp33
 70
     1
102
RTVSPost2010Prop34
280
     0
102
RTVSPost2010PropOp34
 70
     1
102
RTVSPost2010Prop35
280
     0
102
RTVSPost2010PropOp35
 70
     1
102
RTVSPost2010Prop36
280
     0
102
RTVSPost2010PropOp36
 70
     1
102
RTVSPost2010Prop37
 90
       50
102
RTVSPost2010PropOp37
 70
     1
102
RTVSPost2010Prop38
140
0.0
102
RTVSPost2010PropOp38
 70
     1
102
RTVSPost2010Prop39
140
1.0
102
RTVSPost2010PropOp39
 70
     1
102
RTVSPost2010Prop40
 90
        0
102
RTVSPost2010PropOp40
 70
     1
102
RTVSPost2010Prop41ColorIndex
 90
       18
102
RTVSPost2010Prop41ColorRGB
 90
        0
102
RTVSPost2010PropOp41
 70
     1
102
RTVSPost2010Prop42
 90
       50
102
RTVSPost2010PropOp42
 70
     1
102
RTVSPost2010Prop43
 90
        3
102
RTVSPost2010PropOp43
 70
     1
102
RTVSPost2010Prop44ColorIndex
 90
        5
102
RTVSPost2010Prop44ColorRGB
 90
      255
102
RTVSPost2010PropOp44
 70
     1
102
RTVSPost2010Prop45
280
     0
102
RTVSPost2010PropOp45
 70
     1
102
RTVSPost2010Prop46
 90
       50
102
RTVSPost2010PropOp46
 70
     1
102
RTVSPost2010Prop47
 90
       50
102
RTVSPost2010PropOp47
 70
     1
102
RTVSPost2010Prop48
 90
       50
102
RTVSPost2010PropOp48
 70
     1
102
RTVSPost2010Prop49
280
     0
102
RTVSPost2010PropOp49
 70
     1
102
RTVSPost2010Prop50
 90
       50
102
RTVSPost2010PropOp50
 70
     1
102
RTVSPost2010Prop51ColorIndex
 90
      256
102
RTVSPost2010Prop51ColorRGB
 90
-16777216
102
RTVSPost2010PropOp51
 70
     0
102
RTVSPost2010Prop52
140
1.0
102
RTVSPost2010PropOp52
 70
     0
102
RTVSPost2010Prop53
 90
        2
102
RTVSPost2010PropOp53
 70
     1
102
RTVSPost2010Prop54
  1
strokes_ogs.tif
102
RTVSPost2010PropOp54
 70
     1
102
RTVSPost2010Prop55
280
     0
102
RTVSPost2010PropOp55
 70
     1
102
RTVSPost2010Prop56
140
1.0
102
RTVSPost2010PropOp56
 70
     1
102
RTVSPost2010Prop57
140
1.0
102
RTVSPost2010PropOp57
 70
     1
  0
XRECORD
  5
339
102
{ACAD_REACTORS
330
338
102
}
330
338
100
AcDbXrecord
280
     1
102
RTVSPropertyOp0
 70
     1
102
RTVSPropertyOp1
 70
     1
102
RTVSPropertyOp2
 70
     1
102
RTVSPropertyOp3
 70
     1
102
RTVSPropertyOp4
 70
     1
102
RTVSPropertyOp5
 70
     1
102
RTVSPropertyOp6
 70
     1
102
RTVSPropertyOp7
 70
     1
102
RTVSPropertyOp8
 70
     1
102
RTVSPropertyOp9
 70
     1
102
RTVSPropertyOp10
 70
     1
102
RTVSPropertyOp11
 70
     1
102
RTVSPropertyOp12
 70
     1
102
RTVSPropertyOp13
 70
     1
102
RTVSPropertyOp14
 70
     1
102
RTVSPropertyOp15
 70
     1
102
RTVSPropertyOp16
 70
     1
102
RTVSPropertyOp17
 70
     1
102
RTVSPropertyOp18
 70
     1
102
RTVSPropertyOp19
 70
     1
102
RTVSPropertyOp20
 70
     1
102
RTVSPropertyOp21
 70
     1
102
RTVSPropertyOp22
 70
     1
102
RTVSPropertyOp23
 70
     1
102
RTVSPropertyOp24
 70
     1
102
RTVSPropertyOp25
 70
     1
102
RTVSPropertyOp26
 70
     1
102
RTVSPropertyOp27
 70
     1
102
RTVSPropertyOp28
 70
     1
102
RTVSPropertyOp29
 70
     1
102
RTVSPropertyOp30
 70
     1
102
RTVSPropertyOp31
 70
     1
102
RTVSPropertyOp32
 70
     1
102
RTVSPropertyOp33
 70
     1
102
RTVSPropertyOp34
 70
     1
102
RTVSPropertyOp35
 70
     1
102
RTVSPropertyOp36
 70
     1
102
RTVSPropertyOp37
 70
     1
102
RTVSPropertyOp38
 70
     1
102
RTVSPropertyOp39
 70
     1
102
RTVSPropertyOp40
 70
     1
102
RTVSPropertyOp41
 70
     1
102
RTVSPropertyOp42
 70
     1
102
RTVSPropertyOp43
 70
     1
102
RTVSPropertyOp44
 70
     1
102
RTVSPropertyOp45
 70
     1
102
RTVSPropertyOp46
 70
     1
102
RTVSPropertyOp47
 70
     1
102
RTVSPropertyOp48
 70
     1
102
RTVSPropertyOp49
 70
     1
102
RTVSPropertyOp50
 70
     1
102
RTVSPropertyOp51
 70
     0
102
RTVSPropertyOp52
 70
     0
102
RTVSPropertyOp53
 70
     1
102
RTVSPropertyOp54
 70
     1
102
RTVSPropertyOp55
 70
     1
102
RTVSPropertyOp56
 70
     1
102
RTVSPropertyOp57
 70
     1
102
RTVSPost2010Prop28
280
     0
102
RTVSPost2010PropOp28
 70
     1
102
RTVSPost2010Prop29
280
     1
102
RTVSPost2010PropOp29
 70
     1
102
RTVSPost2010Prop30
280
     1
102
RTVSPost2010PropOp30
 70
     1
102
RTVSPost2010Prop31
280
     0
102
RTVSPost2010PropOp31
 70
     1
102
RTVSPost2010Prop32
280
     0
102
RTVSPost2010PropOp32
 70
     1
102
RTVSPost2010Prop33
280
     0
102
RTVSPost2010PropOp33
 70
     1
102
RTVSPost2010Prop34
280
     0
102
RTVSPost2010PropOp34
 70
     1
102
RTVSPost2010Prop35
280
     0
102
RTVSPost2010PropOp35
 70
     1
102
RTVSPost2010Prop36
280
     0
102
RTVSPost2010PropOp36
 70
     1
102
RTVSPost2010Prop37
 90
       50
102
RTVSPost2010PropOp37
 70
     1
102
RTVSPost2010Prop38
140
0.0
102
RTVSPost2010PropOp38
 70
     1
102
RTVSPost2010Prop39
140
1.0
102
RTVSPost2010PropOp39
 70
     1
102
RTVSPost2010Prop40
 90
        0
102
RTVSPost2010PropOp40
 70
     1
102
RTVSPost2010Prop41ColorIndex
 90
       18
102
RTVSPost2010Prop41ColorRGB
 90
        0
102
RTVSPost2010PropOp41
 70
     1
102
RTVSPost2010Prop42
 90
       50
102
RTVSPost2010PropOp42
 70
     1
102
RTVSPost2010Prop43
 90
        3
102
RTVSPost2010PropOp43
 70
     1
102
RTVSPost2010Prop44ColorIndex
 90
        5
102
RTVSPost2010Prop44ColorRGB
 90
      255
102
RTVSPost2010PropOp44
 70
     1
102
RTVSPost2010Prop45
280
     0
102
RTVSPost2010PropOp45
 70
     1
102
RTVSPost2010Prop46
 90
       50
102
RTVSPost2010PropOp46
 70
     1
102
RTVSPost2010Prop47
 90
       50
102
RTVSPost2010PropOp47
 70
     1
102
RTVSPost2010Prop48
 90
       50
102
RTVSPost2010PropOp48
 70
     1
102
RTVSPost2010Prop49
280
     0
102
RTVSPost2010PropOp49
 70
     1
102
RTVSPost2010Prop50
 90
       50
102
RTVSPost2010PropOp50
 70
     1
102
RTVSPost2010Prop51ColorIndex
 90
      256
102
RTVSPost2010Prop51ColorRGB
 90
-16777216
102
RTVSPost2010PropOp51
 70
     0
102
RTVSPost2010Prop52
140
1.0
102
RTVSPost2010PropOp52
 70
     0
102
RTVSPost2010Prop53
 90
        2
102
RTVSPost2010PropOp53
 70
     1
102
RTVSPost2010Prop54
  1
strokes_ogs.tif
102
RTVSPost2010PropOp54
 70
     1
102
RTVSPost2010Prop55
280
     0
102
RTVSPost2010PropOp55
 70
     1
102
RTVSPost2010Prop56
140
1.0
102
RTVSPost2010PropOp56
 70
     1
102
RTVSPost2010Prop57
140
1.0
102
RTVSPost2010PropOp57
 70
     1
  0
XRECORD
  5
341
102
{ACAD_REACTORS
330
340
102
}
330
340
100
AcDbXrecord
280
     1
102
RTVSPropertyOp0
 70
     1
102
RTVSPropertyOp1
 70
     1
102
RTVSPropertyOp2
 70
     1
102
RTVSPropertyOp3
 70
     1
102
RTVSPropertyOp4
 70
     1
102
RTVSPropertyOp5
 70
     1
102
RTVSPropertyOp6
 70
     1
102
RTVSPropertyOp7
 70
     1
102
RTVSPropertyOp8
 70
     1
102
RTVSPropertyOp9
 70
     1
102
RTVSPropertyOp10
 70
     1
102
RTVSPropertyOp11
 70
     1
102
RTVSPropertyOp12
 70
     1
102
RTVSPropertyOp13
 70
     1
102
RTVSPropertyOp14
 70
     1
102
RTVSPropertyOp15
 70
     1
102
RTVSPropertyOp16
 70
     1
102
RTVSPropertyOp17
 70
     1
102
RTVSPropertyOp18
 70
     1
102
RTVSPropertyOp19
 70
     1
102
RTVSPropertyOp20
 70
     1
102
RTVSPropertyOp21
 70
     1
102
RTVSPropertyOp22
 70
     1
102
RTVSPropertyOp23
 70
     1
102
RTVSPropertyOp24
 70
     1
102
RTVSPropertyOp25
 70
     1
102
RTVSPropertyOp26
 70
     1
102
RTVSPropertyOp27
 70
     1
102
RTVSPropertyOp28
 70
     1
102
RTVSPropertyOp29
 70
     1
102
RTVSPropertyOp30
 70
     1
102
RTVSPropertyOp31
 70
     1
102
RTVSPropertyOp32
 70
     1
102
RTVSPropertyOp33
 70
     1
102
RTVSPropertyOp34
 70
     1
102
RTVSPropertyOp35
 70
     1
102
RTVSPropertyOp36
 70
     1
102
RTVSPropertyOp37
 70
     1
102
RTVSPropertyOp38
 70
     1
102
RTVSPropertyOp39
 70
     1
102
RTVSPropertyOp40
 70
     1
102
RTVSPropertyOp41
 70
     1
102
RTVSPropertyOp42
 70
     1
102
RTVSPropertyOp43
 70
     1
102
RTVSPropertyOp44
 70
     1
102
RTVSPropertyOp45
 70
     1
102
RTVSPropertyOp46
 70
     1
102
RTVSPropertyOp47
 70
     1
102
RTVSPropertyOp48
 70
     1
102
RTVSPropertyOp49
 70
     1
102
RTVSPropertyOp50
 70
     1
102
RTVSPropertyOp51
 70
     0
102
RTVSPropertyOp52
 70
     0
102
RTVSPropertyOp53
 70
     1
102
RTVSPropertyOp54
 70
     1
102
RTVSPropertyOp55
 70
     1
102
RTVSPropertyOp56
 70
     1
102
RTVSPropertyOp57
 70
     1
102
RTVSPost2010Prop28
280
     0
102
RTVSPost2010PropOp28
 70
     1
102
RTVSPost2010Prop29
280
     1
102
RTVSPost2010PropOp29
 70
     1
102
RTVSPost2010Prop30
280
     1
102
RTVSPost2010PropOp30
 70
     1
102
RTVSPost2010Prop31
280
     0
102
RTVSPost2010PropOp31
 70
     1
102
RTVSPost2010Prop32
280
     0
102
RTVSPost2010PropOp32
 70
     1
102
RTVSPost2010Prop33
280
     0
102
RTVSPost2010PropOp33
 70
     1
102
RTVSPost2010Prop34
280
     0
102
RTVSPost2010PropOp34
 70
     1
102
RTVSPost2010Prop35
280
     0
102
RTVSPost2010PropOp35
 70
     1
102
RTVSPost2010Prop36
280
     0
102
RTVSPost2010PropOp36
 70
     1
102
RTVSPost2010Prop37
 90
       50
102
RTVSPost2010PropOp37
 70
     1
102
RTVSPost2010Prop38
140
0.0
102
RTVSPost2010PropOp38
 70
     1
102
RTVSPost2010Prop39
140
1.0
102
RTVSPost2010PropOp39
 70
     1
102
RTVSPost2010Prop40
 90
        0
102
RTVSPost2010PropOp40
 70
     1
102
RTVSPost2010Prop41ColorIndex
 90
       18
102
RTVSPost2010Prop41ColorRGB
 90
        0
102
RTVSPost2010PropOp41
 70
     1
102
RTVSPost2010Prop42
 90
       50
102
RTVSPost2010PropOp42
 70
     1
102
RTVSPost2010Prop43
 90
        3
102
RTVSPost2010PropOp43
 70
     1
102
RTVSPost2010Prop44ColorIndex
 90
        5
102
RTVSPost2010Prop44ColorRGB
 90
      255
102
RTVSPost2010PropOp44
 70
     1
102
RTVSPost2010Prop45
280
     0
102
RTVSPost2010PropOp45
 70
     1
102
RTVSPost2010Prop46
 90
       50
102
RTVSPost2010PropOp46
 70
     1
102
RTVSPost2010Prop47
 90
       50
102
RTVSPost2010PropOp47
 70
     1
102
RTVSPost2010Prop48
 90
       50
102
RTVSPost2010PropOp48
 70
     1
102
RTVSPost2010Prop49
280
     0
102
RTVSPost2010PropOp49
 70
     1
102
RTVSPost2010Prop50
 90
       50
102
RTVSPost2010PropOp50
 70
     1
102
RTVSPost2010Prop51ColorIndex
 90
      256
102
RTVSPost2010Prop51ColorRGB
 90
-16777216
102
RTVSPost2010PropOp51
 70
     0
102
RTVSPost2010Prop52
140
1.0
102
RTVSPost2010PropOp52
 70
     0
102
RTVSPost2010Prop53
 90
        2
102
RTVSPost2010PropOp53
 70
     1
102
RTVSPost2010Prop54
  1
strokes_ogs.tif
102
RTVSPost2010PropOp54
 70
     1
102
RTVSPost2010Prop55
280
     0
102
RTVSPost2010PropOp55
 70
     1
102
RTVSPost2010Prop56
140
1.0
102
RTVSPost2010PropOp56
 70
     1
102
RTVSPost2010Prop57
140
1.0
102
RTVSPost2010PropOp57
 70
     1
  0
XRECORD
  5
349
102
{ACAD_REACTORS
330
348
102
}
330
348
100
AcDbXrecord
280
     1
102
RTVSPropertyOp0
 70
     1
102
RTVSPropertyOp1
 70
     1
102
RTVSPropertyOp2
 70
     1
102
RTVSPropertyOp3
 70
     1
102
RTVSPropertyOp4
 70
     1
102
RTVSPropertyOp5
 70
     1
102
RTVSPropertyOp6
 70
     1
102
RTVSPropertyOp7
 70
     1
102
RTVSPropertyOp8
 70
     1
102
RTVSPropertyOp9
 70
     1
102
RTVSPropertyOp10
 70
     1
102
RTVSPropertyOp11
 70
     1
102
RTVSPropertyOp12
 70
     1
102
RTVSPropertyOp13
 70
     1
102
RTVSPropertyOp14
 70
     1
102
RTVSPropertyOp15
 70
     1
102
RTVSPropertyOp16
 70
     1
102
RTVSPropertyOp17
 70
     1
102
RTVSPropertyOp18
 70
     1
102
RTVSPropertyOp19
 70
     1
102
RTVSPropertyOp20
 70
     1
102
RTVSPropertyOp21
 70
     1
102
RTVSPropertyOp22
 70
     1
102
RTVSPropertyOp23
 70
     1
102
RTVSPropertyOp24
 70
     1
102
RTVSPropertyOp25
 70
     1
102
RTVSPropertyOp26
 70
     1
102
RTVSPropertyOp27
 70
     1
102
RTVSPropertyOp28
 70
     1
102
RTVSPropertyOp29
 70
     1
102
RTVSPropertyOp30
 70
     1
102
RTVSPropertyOp31
 70
     1
102
RTVSPropertyOp32
 70
     1
102
RTVSPropertyOp33
 70
     1
102
RTVSPropertyOp34
 70
     1
102
RTVSPropertyOp35
 70
     1
102
RTVSPropertyOp36
 70
     1
102
RTVSPropertyOp37
 70
     1
102
RTVSPropertyOp38
 70
     1
102
RTVSPropertyOp39
 70
     1
102
RTVSPropertyOp40
 70
     1
102
RTVSPropertyOp41
 70
     1
102
RTVSPropertyOp42
 70
     1
102
RTVSPropertyOp43
 70
     1
102
RTVSPropertyOp44
 70
     1
102
RTVSPropertyOp45
 70
     1
102
RTVSPropertyOp46
 70
     1
102
RTVSPropertyOp47
 70
     1
102
RTVSPropertyOp48
 70
     1
102
RTVSPropertyOp49
 70
     1
102
RTVSPropertyOp50
 70
     1
102
RTVSPropertyOp51
 70
     0
102
RTVSPropertyOp52
 70
     0
102
RTVSPropertyOp53
 70
     1
102
RTVSPropertyOp54
 70
     1
102
RTVSPropertyOp55
 70
     1
102
RTVSPropertyOp56
 70
     1
102
RTVSPropertyOp57
 70
     1
102
RTVSPost2010Prop28
280
     0
102
RTVSPost2010PropOp28
 70
     1
102
RTVSPost2010Prop29
280
     1
102
RTVSPost2010PropOp29
 70
     1
102
RTVSPost2010Prop30
280
     1
102
RTVSPost2010PropOp30
 70
     1
102
RTVSPost2010Prop31
280
     0
102
RTVSPost2010PropOp31
 70
     1
102
RTVSPost2010Prop32
280
     0
102
RTVSPost2010PropOp32
 70
     1
102
RTVSPost2010Prop33
280
     0
102
RTVSPost2010PropOp33
 70
     1
102
RTVSPost2010Prop34
280
     0
102
RTVSPost2010PropOp34
 70
     1
102
RTVSPost2010Prop35
280
     0
102
RTVSPost2010PropOp35
 70
     1
102
RTVSPost2010Prop36
280
     0
102
RTVSPost2010PropOp36
 70
     1
102
RTVSPost2010Prop37
 90
       50
102
RTVSPost2010PropOp37
 70
     1
102
RTVSPost2010Prop38
140
0.0
102
RTVSPost2010PropOp38
 70
     1
102
RTVSPost2010Prop39
140
1.0
102
RTVSPost2010PropOp39
 70
     1
102
RTVSPost2010Prop40
 90
        0
102
RTVSPost2010PropOp40
 70
     1
102
RTVSPost2010Prop41ColorIndex
 90
       18
102
RTVSPost2010Prop41ColorRGB
 90
        0
102
RTVSPost2010PropOp41
 70
     1
102
RTVSPost2010Prop42
 90
       50
102
RTVSPost2010PropOp42
 70
     1
102
RTVSPost2010Prop43
 90
        3
102
RTVSPost2010PropOp43
 70
     1
102
RTVSPost2010Prop44ColorIndex
 90
        5
102
RTVSPost2010Prop44ColorRGB
 90
      255
102
RTVSPost2010PropOp44
 70
     1
102
RTVSPost2010Prop45
280
     0
102
RTVSPost2010PropOp45
 70
     1
102
RTVSPost2010Prop46
 90
       50
102
RTVSPost2010PropOp46
 70
     1
102
RTVSPost2010Prop47
 90
       50
102
RTVSPost2010PropOp47
 70
     1
102
RTVSPost2010Prop48
 90
       50
102
RTVSPost2010PropOp48
 70
     1
102
RTVSPost2010Prop49
280
     0
102
RTVSPost2010PropOp49
 70
     1
102
RTVSPost2010Prop50
 90
       50
102
RTVSPost2010PropOp50
 70
     1
102
RTVSPost2010Prop51ColorIndex
 90
      256
102
RTVSPost2010Prop51ColorRGB
 90
-16777216
102
RTVSPost2010PropOp51
 70
     0
102
RTVSPost2010Prop52
140
1.0
102
RTVSPost2010PropOp52
 70
     0
102
RTVSPost2010Prop53
 90
        2
102
RTVSPost2010PropOp53
 70
     1
102
RTVSPost2010Prop54
  1
strokes_ogs.tif
102
RTVSPost2010PropOp54
 70
     1
102
RTVSPost2010Prop55
280
     0
102
RTVSPost2010PropOp55
 70
     1
102
RTVSPost2010Prop56
140
1.0
102
RTVSPost2010PropOp56
 70
     1
102
RTVSPost2010Prop57
140
1.0
102
RTVSPost2010PropOp57
 70
     1
  0
XRECORD
  5
33D
102
{ACAD_REACTORS
330
33C
102
}
330
33C
100
AcDbXrecord
280
     1
102
RTVSPropertyOp0
 70
     1
102
RTVSPropertyOp1
 70
     1
102
RTVSPropertyOp2
 70
     1
102
RTVSPropertyOp3
 70
     1
102
RTVSPropertyOp4
 70
     1
102
RTVSPropertyOp5
 70
     1
102
RTVSPropertyOp6
 70
     1
102
RTVSPropertyOp7
 70
     1
102
RTVSPropertyOp8
 70
     1
102
RTVSPropertyOp9
 70
     1
102
RTVSPropertyOp10
 70
     1
102
RTVSPropertyOp11
 70
     1
102
RTVSPropertyOp12
 70
     1
102
RTVSPropertyOp13
 70
     1
102
RTVSPropertyOp14
 70
     1
102
RTVSPropertyOp15
 70
     1
102
RTVSPropertyOp16
 70
     1
102
RTVSPropertyOp17
 70
     1
102
RTVSPropertyOp18
 70
     1
102
RTVSPropertyOp19
 70
     1
102
RTVSPropertyOp20
 70
     1
102
RTVSPropertyOp21
 70
     1
102
RTVSPropertyOp22
 70
     1
102
RTVSPropertyOp23
 70
     1
102
RTVSPropertyOp24
 70
     1
102
RTVSPropertyOp25
 70
     1
102
RTVSPropertyOp26
 70
     1
102
RTVSPropertyOp27
 70
     1
102
RTVSPropertyOp28
 70
     1
102
RTVSPropertyOp29
 70
     1
102
RTVSPropertyOp30
 70
     1
102
RTVSPropertyOp31
 70
     1
102
RTVSPropertyOp32
 70
     1
102
RTVSPropertyOp33
 70
     1
102
RTVSPropertyOp34
 70
     1
102
RTVSPropertyOp35
 70
     1
102
RTVSPropertyOp36
 70
     1
102
RTVSPropertyOp37
 70
     1
102
RTVSPropertyOp38
 70
     1
102
RTVSPropertyOp39
 70
     1
102
RTVSPropertyOp40
 70
     1
102
RTVSPropertyOp41
 70
     1
102
RTVSPropertyOp42
 70
     1
102
RTVSPropertyOp43
 70
     1
102
RTVSPropertyOp44
 70
     1
102
RTVSPropertyOp45
 70
     1
102
RTVSPropertyOp46
 70
     1
102
RTVSPropertyOp47
 70
     1
102
RTVSPropertyOp48
 70
     1
102
RTVSPropertyOp49
 70
     1
102
RTVSPropertyOp50
 70
     1
102
RTVSPropertyOp51
 70
     0
102
RTVSPropertyOp52
 70
     0
102
RTVSPropertyOp53
 70
     1
102
RTVSPropertyOp54
 70
     1
102
RTVSPropertyOp55
 70
     1
102
RTVSPropertyOp56
 70
     1
102
RTVSPropertyOp57
 70
     1
102
RTVSPost2010Prop28
280
     0
102
RTVSPost2010PropOp28
 70
     1
102
RTVSPost2010Prop29
280
     1
102
RTVSPost2010PropOp29
 70
     1
102
RTVSPost2010Prop30
280
     1
102
RTVSPost2010PropOp30
 70
     1
102
RTVSPost2010Prop31
280
     0
102
RTVSPost2010PropOp31
 70
     1
102
RTVSPost2010Prop32
280
     0
102
RTVSPost2010PropOp32
 70
     1
102
RTVSPost2010Prop33
280
     0
102
RTVSPost2010PropOp33
 70
     1
102
RTVSPost2010Prop34
280
     0
102
RTVSPost2010PropOp34
 70
     1
102
RTVSPost2010Prop35
280
     0
102
RTVSPost2010PropOp35
 70
     1
102
RTVSPost2010Prop36
280
     0
102
RTVSPost2010PropOp36
 70
     1
102
RTVSPost2010Prop37
 90
       50
102
RTVSPost2010PropOp37
 70
     1
102
RTVSPost2010Prop38
140
0.0
102
RTVSPost2010PropOp38
 70
     1
102
RTVSPost2010Prop39
140
1.0
102
RTVSPost2010PropOp39
 70
     1
102
RTVSPost2010Prop40
 90
        0
102
RTVSPost2010PropOp40
 70
     1
102
RTVSPost2010Prop41ColorIndex
 90
       18
102
RTVSPost2010Prop41ColorRGB
 90
        0
102
RTVSPost2010PropOp41
 70
     1
102
RTVSPost2010Prop42
 90
       50
102
RTVSPost2010PropOp42
 70
     1
102
RTVSPost2010Prop43
 90
        3
102
RTVSPost2010PropOp43
 70
     1
102
RTVSPost2010Prop44ColorIndex
 90
        5
102
RTVSPost2010Prop44ColorRGB
 90
      255
102
RTVSPost2010PropOp44
 70
     1
102
RTVSPost2010Prop45
280
     0
102
RTVSPost2010PropOp45
 70
     1
102
RTVSPost2010Prop46
 90
       50
102
RTVSPost2010PropOp46
 70
     1
102
RTVSPost2010Prop47
 90
       50
102
RTVSPost2010PropOp47
 70
     1
102
RTVSPost2010Prop48
 90
       50
102
RTVSPost2010PropOp48
 70
     1
102
RTVSPost2010Prop49
280
     0
102
RTVSPost2010PropOp49
 70
     1
102
RTVSPost2010Prop50
 90
       50
102
RTVSPost2010PropOp50
 70
     1
102
RTVSPost2010Prop51ColorIndex
 90
      256
102
RTVSPost2010Prop51ColorRGB
 90
-16777216
102
RTVSPost2010PropOp51
 70
     0
102
RTVSPost2010Prop52
140
1.0
102
RTVSPost2010PropOp52
 70
     0
102
RTVSPost2010Prop53
 90
        2
102
RTVSPost2010PropOp53
 70
     1
102
RTVSPost2010Prop54
  1
strokes_ogs.tif
102
RTVSPost2010PropOp54
 70
     1
102
RTVSPost2010Prop55
280
     0
102
RTVSPost2010PropOp55
 70
     1
102
RTVSPost2010Prop56
140
1.0
102
RTVSPost2010PropOp56
 70
     1
102
RTVSPost2010Prop57
140
1.0
102
RTVSPost2010PropOp57
 70
     1
  0
XRECORD
  5
33F
102
{ACAD_REACTORS
330
33E
102
}
330
33E
100
AcDbXrecord
280
     1
102
RTVSPropertyOp0
 70
     1
102
RTVSPropertyOp1
 70
     1
102
RTVSPropertyOp2
 70
     1
102
RTVSPropertyOp3
 70
     1
102
RTVSPropertyOp4
 70
     1
102
RTVSPropertyOp5
 70
     1
102
RTVSPropertyOp6
 70
     1
102
RTVSPropertyOp7
 70
     1
102
RTVSPropertyOp8
 70
     1
102
RTVSPropertyOp9
 70
     1
102
RTVSPropertyOp10
 70
     1
102
RTVSPropertyOp11
 70
     1
102
RTVSPropertyOp12
 70
     1
102
RTVSPropertyOp13
 70
     1
102
RTVSPropertyOp14
 70
     1
102
RTVSPropertyOp15
 70
     1
102
RTVSPropertyOp16
 70
     1
102
RTVSPropertyOp17
 70
     1
102
RTVSPropertyOp18
 70
     1
102
RTVSPropertyOp19
 70
     1
102
RTVSPropertyOp20
 70
     1
102
RTVSPropertyOp21
 70
     1
102
RTVSPropertyOp22
 70
     1
102
RTVSPropertyOp23
 70
     1
102
RTVSPropertyOp24
 70
     1
102
RTVSPropertyOp25
 70
     1
102
RTVSPropertyOp26
 70
     1
102
RTVSPropertyOp27
 70
     1
102
RTVSPropertyOp28
 70
     1
102
RTVSPropertyOp29
 70
     1
102
RTVSPropertyOp30
 70
     1
102
RTVSPropertyOp31
 70
     1
102
RTVSPropertyOp32
 70
     1
102
RTVSPropertyOp33
 70
     1
102
RTVSPropertyOp34
 70
     1
102
RTVSPropertyOp35
 70
     1
102
RTVSPropertyOp36
 70
     1
102
RTVSPropertyOp37
 70
     1
102
RTVSPropertyOp38
 70
     1
102
RTVSPropertyOp39
 70
     1
102
RTVSPropertyOp40
 70
     1
102
RTVSPropertyOp41
 70
     1
102
RTVSPropertyOp42
 70
     1
102
RTVSPropertyOp43
 70
     1
102
RTVSPropertyOp44
 70
     1
102
RTVSPropertyOp45
 70
     1
102
RTVSPropertyOp46
 70
     1
102
RTVSPropertyOp47
 70
     1
102
RTVSPropertyOp48
 70
     1
102
RTVSPropertyOp49
 70
     1
102
RTVSPropertyOp50
 70
     1
102
RTVSPropertyOp51
 70
     0
102
RTVSPropertyOp52
 70
     0
102
RTVSPropertyOp53
 70
     1
102
RTVSPropertyOp54
 70
     1
102
RTVSPropertyOp55
 70
     1
102
RTVSPropertyOp56
 70
     1
102
RTVSPropertyOp57
 70
     1
102
RTVSPost2010Prop28
280
     0
102
RTVSPost2010PropOp28
 70
     1
102
RTVSPost2010Prop29
280
     1
102
RTVSPost2010PropOp29
 70
     1
102
RTVSPost2010Prop30
280
     1
102
RTVSPost2010PropOp30
 70
     1
102
RTVSPost2010Prop31
280
     0
102
RTVSPost2010PropOp31
 70
     1
102
RTVSPost2010Prop32
280
     0
102
RTVSPost2010PropOp32
 70
     1
102
RTVSPost2010Prop33
280
     0
102
RTVSPost2010PropOp33
 70
     1
102
RTVSPost2010Prop34
280
     0
102
RTVSPost2010PropOp34
 70
     1
102
RTVSPost2010Prop35
280
     0
102
RTVSPost2010PropOp35
 70
     1
102
RTVSPost2010Prop36
280
     0
102
RTVSPost2010PropOp36
 70
     1
102
RTVSPost2010Prop37
 90
       50
102
RTVSPost2010PropOp37
 70
     1
102
RTVSPost2010Prop38
140
0.0
102
RTVSPost2010PropOp38
 70
     1
102
RTVSPost2010Prop39
140
1.0
102
RTVSPost2010PropOp39
 70
     1
102
RTVSPost2010Prop40
 90
        0
102
RTVSPost2010PropOp40
 70
     1
102
RTVSPost2010Prop41ColorIndex
 90
       18
102
RTVSPost2010Prop41ColorRGB
 90
        0
102
RTVSPost2010PropOp41
 70
     1
102
RTVSPost2010Prop42
 90
       50
102
RTVSPost2010PropOp42
 70
     1
102
RTVSPost2010Prop43
 90
        3
102
RTVSPost2010PropOp43
 70
     1
102
RTVSPost2010Prop44ColorIndex
 90
        5
102
RTVSPost2010Prop44ColorRGB
 90
      255
102
RTVSPost2010PropOp44
 70
     1
102
RTVSPost2010Prop45
280
     0
102
RTVSPost2010PropOp45
 70
     1
102
RTVSPost2010Prop46
 90
       50
102
RTVSPost2010PropOp46
 70
     1
102
RTVSPost2010Prop47
 90
       50
102
RTVSPost2010PropOp47
 70
     1
102
RTVSPost2010Prop48
 90
       50
102
RTVSPost2010PropOp48
 70
     1
102
RTVSPost2010Prop49
280
     0
102
RTVSPost2010PropOp49
 70
     1
102
RTVSPost2010Prop50
 90
       50
102
RTVSPost2010PropOp50
 70
     1
102
RTVSPost2010Prop51ColorIndex
 90
      256
102
RTVSPost2010Prop51ColorRGB
 90
-16777216
102
RTVSPost2010PropOp51
 70
     0
102
RTVSPost2010Prop52
140
1.0
102
RTVSPost2010PropOp52
 70
     0
102
RTVSPost2010Prop53
 90
        2
102
RTVSPost2010PropOp53
 70
     1
102
RTVSPost2010Prop54
  1
strokes_ogs.tif
102
RTVSPost2010PropOp54
 70
     1
102
RTVSPost2010Prop55
280
     0
102
RTVSPost2010PropOp55
 70
     1
102
RTVSPost2010Prop56
140
1.0
102
RTVSPost2010PropOp56
 70
     1
102
RTVSPost2010Prop57
140
1.0
102
RTVSPost2010PropOp57
 70
     1
  0
XRECORD
  5
34F
102
{ACAD_REACTORS
330
34E
102
}
330
34E
100
AcDbXrecord
280
     1
102
RTVSPropertyOp0
 70
     0
102
RTVSPropertyOp1
 70
     0
102
RTVSPropertyOp2
 70
     0
102
RTVSPropertyOp3
 70
     0
102
RTVSPropertyOp4
 70
     0
102
RTVSPropertyOp5
 70
     0
102
RTVSPropertyOp6
 70
     0
102
RTVSPropertyOp7
 70
     0
102
RTVSPropertyOp8
 70
     0
102
RTVSPropertyOp9
 70
     0
102
RTVSPropertyOp10
 70
     0
102
RTVSPropertyOp11
 70
     0
102
RTVSPropertyOp12
 70
     0
102
RTVSPropertyOp13
 70
     0
102
RTVSPropertyOp14
 70
     2
102
RTVSPropertyOp15
 70
     0
102
RTVSPropertyOp16
 70
     0
102
RTVSPropertyOp17
 70
     0
102
RTVSPropertyOp18
 70
     0
102
RTVSPropertyOp19
 70
     0
102
RTVSPropertyOp20
 70
     0
102
RTVSPropertyOp21
 70
     0
102
RTVSPropertyOp22
 70
     0
102
RTVSPropertyOp23
 70
     0
102
RTVSPropertyOp24
 70
     0
102
RTVSPropertyOp25
 70
     0
102
RTVSPropertyOp26
 70
     0
102
RTVSPropertyOp27
 70
     0
102
RTVSPropertyOp28
 70
     0
102
RTVSPropertyOp29
 70
     0
102
RTVSPropertyOp30
 70
     0
102
RTVSPropertyOp31
 70
     0
102
RTVSPropertyOp32
 70
     0
102
RTVSPropertyOp33
 70
     0
102
RTVSPropertyOp34
 70
     0
102
RTVSPropertyOp35
 70
     0
102
RTVSPropertyOp36
 70
     0
102
RTVSPropertyOp37
 70
     0
102
RTVSPropertyOp38
 70
     0
102
RTVSPropertyOp39
 70
     0
102
RTVSPropertyOp40
 70
     0
102
RTVSPropertyOp41
 70
     0
102
RTVSPropertyOp42
 70
     0
102
RTVSPropertyOp43
 70
     0
102
RTVSPropertyOp44
 70
     0
102
RTVSPropertyOp45
 70
     0
102
RTVSPropertyOp46
 70
     0
102
RTVSPropertyOp47
 70
     0
102
RTVSPropertyOp48
 70
     0
102
RTVSPropertyOp49
 70
     0
102
RTVSPropertyOp50
 70
     0
102
RTVSPropertyOp51
 70
     0
102
RTVSPropertyOp52
 70
     0
102
RTVSPropertyOp53
 70
     0
102
RTVSPropertyOp54
 70
     0
102
RTVSPropertyOp55
 70
     0
102
RTVSPropertyOp56
 70
     0
102
RTVSPropertyOp57
 70
     0
102
RTVSPost2010Prop28
280
     0
102
RTVSPost2010PropOp28
 70
     0
102
RTVSPost2010Prop29
280
     1
102
RTVSPost2010PropOp29
 70
     0
102
RTVSPost2010Prop30
280
     1
102
RTVSPost2010PropOp30
 70
     0
102
RTVSPost2010Prop31
280
     0
102
RTVSPost2010PropOp31
 70
     0
102
RTVSPost2010Prop32
280
     0
102
RTVSPost2010PropOp32
 70
     0
102
RTVSPost2010Prop33
280
     0
102
RTVSPost2010PropOp33
 70
     0
102
RTVSPost2010Prop34
280
     0
102
RTVSPost2010PropOp34
 70
     0
102
RTVSPost2010Prop35
280
     0
102
RTVSPost2010PropOp35
 70
     0
102
RTVSPost2010Prop36
280
     0
102
RTVSPost2010PropOp36
 70
     0
102
RTVSPost2010Prop37
 90
       50
102
RTVSPost2010PropOp37
 70
     0
102
RTVSPost2010Prop38
140
0.0
102
RTVSPost2010PropOp38
 70
     0
102
RTVSPost2010Prop39
140
1.0
102
RTVSPost2010PropOp39
 70
     0
102
RTVSPost2010Prop40
 90
        0
102
RTVSPost2010PropOp40
 70
     0
102
RTVSPost2010Prop41ColorIndex
 90
       18
102
RTVSPost2010Prop41ColorRGB
 90
        0
102
RTVSPost2010PropOp41
 70
     0
102
RTVSPost2010Prop42
 90
       50
102
RTVSPost2010PropOp42
 70
     0
102
RTVSPost2010Prop43
 90
        3
102
RTVSPost2010PropOp43
 70
     0
102
RTVSPost2010Prop44ColorIndex
 90
        5
102
RTVSPost2010Prop44ColorRGB
 90
      255
102
RTVSPost2010PropOp44
 70
     0
102
RTVSPost2010Prop45
280
     0
102
RTVSPost2010PropOp45
 70
     0
102
RTVSPost2010Prop46
 90
       50
102
RTVSPost2010PropOp46
 70
     0
102
RTVSPost2010Prop47
 90
       50
102
RTVSPost2010PropOp47
 70
     0
102
RTVSPost2010Prop48
 90
       50
102
RTVSPost2010PropOp48
 70
     0
102
RTVSPost2010Prop49
280
     0
102
RTVSPost2010PropOp49
 70
     0
102
RTVSPost2010Prop50
 90
       50
102
RTVSPost2010PropOp50
 70
     0
102
RTVSPost2010Prop51ColorIndex
 90
      256
102
RTVSPost2010Prop51ColorRGB
 90
-16777216
102
RTVSPost2010PropOp51
 70
     0
102
RTVSPost2010Prop52
140
1.0
102
RTVSPost2010PropOp52
 70
     0
102
RTVSPost2010Prop53
 90
        2
102
RTVSPost2010PropOp53
 70
     0
102
RTVSPost2010Prop54
  1
strokes_ogs.tif
102
RTVSPost2010PropOp54
 70
     0
102
RTVSPost2010Prop55
280
     0
102
RTVSPost2010PropOp55
 70
     0
102
RTVSPost2010Prop56
140
1.0
102
RTVSPost2010PropOp56
 70
     0
102
RTVSPost2010Prop57
140
1.0
102
RTVSPost2010PropOp57
 70
     0
  0
XRECORD
  5
347
102
{ACAD_REACTORS
330
346
102
}
330
346
100
AcDbXrecord
280
     1
102
RTVSPropertyOp0
 70
     1
102
RTVSPropertyOp1
 70
     1
102
RTVSPropertyOp2
 70
     1
102
RTVSPropertyOp3
 70
     1
102
RTVSPropertyOp4
 70
     1
102
RTVSPropertyOp5
 70
     1
102
RTVSPropertyOp6
 70
     1
102
RTVSPropertyOp7
 70
     1
102
RTVSPropertyOp8
 70
     1
102
RTVSPropertyOp9
 70
     1
102
RTVSPropertyOp10
 70
     1
102
RTVSPropertyOp11
 70
     1
102
RTVSPropertyOp12
 70
     1
102
RTVSPropertyOp13
 70
     1
102
RTVSPropertyOp14
 70
     1
102
RTVSPropertyOp15
 70
     1
102
RTVSPropertyOp16
 70
     1
102
RTVSPropertyOp17
 70
     1
102
RTVSPropertyOp18
 70
     1
102
RTVSPropertyOp19
 70
     1
102
RTVSPropertyOp20
 70
     1
102
RTVSPropertyOp21
 70
     1
102
RTVSPropertyOp22
 70
     1
102
RTVSPropertyOp23
 70
     1
102
RTVSPropertyOp24
 70
     1
102
RTVSPropertyOp25
 70
     1
102
RTVSPropertyOp26
 70
     1
102
RTVSPropertyOp27
 70
     1
102
RTVSPropertyOp28
 70
     1
102
RTVSPropertyOp29
 70
     1
102
RTVSPropertyOp30
 70
     1
102
RTVSPropertyOp31
 70
     1
102
RTVSPropertyOp32
 70
     1
102
RTVSPropertyOp33
 70
     1
102
RTVSPropertyOp34
 70
     1
102
RTVSPropertyOp35
 70
     1
102
RTVSPropertyOp36
 70
     1
102
RTVSPropertyOp37
 70
     1
102
RTVSPropertyOp38
 70
     1
102
RTVSPropertyOp39
 70
     1
102
RTVSPropertyOp40
 70
     1
102
RTVSPropertyOp41
 70
     1
102
RTVSPropertyOp42
 70
     1
102
RTVSPropertyOp43
 70
     1
102
RTVSPropertyOp44
 70
     1
102
RTVSPropertyOp45
 70
     1
102
RTVSPropertyOp46
 70
     1
102
RTVSPropertyOp47
 70
     1
102
RTVSPropertyOp48
 70
     1
102
RTVSPropertyOp49
 70
     1
102
RTVSPropertyOp50
 70
     1
102
RTVSPropertyOp51
 70
     0
102
RTVSPropertyOp52
 70
     0
102
RTVSPropertyOp53
 70
     1
102
RTVSPropertyOp54
 70
     1
102
RTVSPropertyOp55
 70
     1
102
RTVSPropertyOp56
 70
     1
102
RTVSPropertyOp57
 70
     1
102
RTVSPost2010Prop28
280
     0
102
RTVSPost2010PropOp28
 70
     1
102
RTVSPost2010Prop29
280
     1
102
RTVSPost2010PropOp29
 70
     1
102
RTVSPost2010Prop30
280
     1
102
RTVSPost2010PropOp30
 70
     1
102
RTVSPost2010Prop31
280
     0
102
RTVSPost2010PropOp31
 70
     1
102
RTVSPost2010Prop32
280
     0
102
RTVSPost2010PropOp32
 70
     1
102
RTVSPost2010Prop33
280
     0
102
RTVSPost2010PropOp33
 70
     1
102
RTVSPost2010Prop34
280
     0
102
RTVSPost2010PropOp34
 70
     1
102
RTVSPost2010Prop35
280
     0
102
RTVSPost2010PropOp35
 70
     1
102
RTVSPost2010Prop36
280
     0
102
RTVSPost2010PropOp36
 70
     1
102
RTVSPost2010Prop37
 90
       50
102
RTVSPost2010PropOp37
 70
     1
102
RTVSPost2010Prop38
140
0.0
102
RTVSPost2010PropOp38
 70
     1
102
RTVSPost2010Prop39
140
1.0
102
RTVSPost2010PropOp39
 70
     1
102
RTVSPost2010Prop40
 90
        0
102
RTVSPost2010PropOp40
 70
     1
102
RTVSPost2010Prop41ColorIndex
 90
       18
102
RTVSPost2010Prop41ColorRGB
 90
        0
102
RTVSPost2010PropOp41
 70
     1
102
RTVSPost2010Prop42
 90
       50
102
RTVSPost2010PropOp42
 70
     1
102
RTVSPost2010Prop43
 90
        3
102
RTVSPost2010PropOp43
 70
     1
102
RTVSPost2010Prop44ColorIndex
 90
        5
102
RTVSPost2010Prop44ColorRGB
 90
      255
102
RTVSPost2010PropOp44
 70
     1
102
RTVSPost2010Prop45
280
     0
102
RTVSPost2010PropOp45
 70
     1
102
RTVSPost2010Prop46
 90
       50
102
RTVSPost2010PropOp46
 70
     1
102
RTVSPost2010Prop47
 90
       50
102
RTVSPost2010PropOp47
 70
     1
102
RTVSPost2010Prop48
 90
       50
102
RTVSPost2010PropOp48
 70
     1
102
RTVSPost2010Prop49
280
     0
102
RTVSPost2010PropOp49
 70
     1
102
RTVSPost2010Prop50
 90
       50
102
RTVSPost2010PropOp50
 70
     1
102
RTVSPost2010Prop51ColorIndex
 90
      256
102
RTVSPost2010Prop51ColorRGB
 90
-16777216
102
RTVSPost2010PropOp51
 70
     0
102
RTVSPost2010Prop52
140
1.0
102
RTVSPost2010PropOp52
 70
     0
102
RTVSPost2010Prop53
 90
        2
102
RTVSPost2010PropOp53
 70
     1
102
RTVSPost2010Prop54
  1
strokes_ogs.tif
102
RTVSPost2010PropOp54
 70
     1
102
RTVSPost2010Prop55
280
     0
102
RTVSPost2010PropOp55
 70
     1
102
RTVSPost2010Prop56
140
1.0
102
RTVSPost2010PropOp56
 70
     1
102
RTVSPost2010Prop57
140
1.0
102
RTVSPost2010PropOp57
 70
     1
  0
XRECORD
  5
32B
102
{ACAD_REACTORS
330
32A
102
}
330
32A
100
AcDbXrecord
280
     1
102
RTVSPropertyOp0
 70
     1
102
RTVSPropertyOp1
 70
     1
102
RTVSPropertyOp2
 70
     1
102
RTVSPropertyOp3
 70
     1
102
RTVSPropertyOp4
 70
     1
102
RTVSPropertyOp5
 70
     1
102
RTVSPropertyOp6
 70
     1
102
RTVSPropertyOp7
 70
     1
102
RTVSPropertyOp8
 70
     1
102
RTVSPropertyOp9
 70
     1
102
RTVSPropertyOp10
 70
     1
102
RTVSPropertyOp11
 70
     1
102
RTVSPropertyOp12
 70
     1
102
RTVSPropertyOp13
 70
     1
102
RTVSPropertyOp14
 70
     1
102
RTVSPropertyOp15
 70
     1
102
RTVSPropertyOp16
 70
     1
102
RTVSPropertyOp17
 70
     1
102
RTVSPropertyOp18
 70
     1
102
RTVSPropertyOp19
 70
     1
102
RTVSPropertyOp20
 70
     1
102
RTVSPropertyOp21
 70
     1
102
RTVSPropertyOp22
 70
     1
102
RTVSPropertyOp23
 70
     1
102
RTVSPropertyOp24
 70
     1
102
RTVSPropertyOp25
 70
     1
102
RTVSPropertyOp26
 70
     1
102
RTVSPropertyOp27
 70
     1
102
RTVSPropertyOp28
 70
     1
102
RTVSPropertyOp29
 70
     1
102
RTVSPropertyOp30
 70
     1
102
RTVSPropertyOp31
 70
     1
102
RTVSPropertyOp32
 70
     1
102
RTVSPropertyOp33
 70
     1
102
RTVSPropertyOp34
 70
     1
102
RTVSPropertyOp35
 70
     1
102
RTVSPropertyOp36
 70
     1
102
RTVSPropertyOp37
 70
     1
102
RTVSPropertyOp38
 70
     1
102
RTVSPropertyOp39
 70
     1
102
RTVSPropertyOp40
 70
     1
102
RTVSPropertyOp41
 70
     1
102
RTVSPropertyOp42
 70
     1
102
RTVSPropertyOp43
 70
     1
102
RTVSPropertyOp44
 70
     1
102
RTVSPropertyOp45
 70
     1
102
RTVSPropertyOp46
 70
     1
102
RTVSPropertyOp47
 70
     1
102
RTVSPropertyOp48
 70
     1
102
RTVSPropertyOp49
 70
     1
102
RTVSPropertyOp50
 70
     1
102
RTVSPropertyOp51
 70
     0
102
RTVSPropertyOp52
 70
     0
102
RTVSPropertyOp53
 70
     1
102
RTVSPropertyOp54
 70
     1
102
RTVSPropertyOp55
 70
     1
102
RTVSPropertyOp56
 70
     1
102
RTVSPropertyOp57
 70
     1
102
RTVSPost2010Prop28
280
     0
102
RTVSPost2010PropOp28
 70
     1
102
RTVSPost2010Prop29
280
     1
102
RTVSPost2010PropOp29
 70
     1
102
RTVSPost2010Prop30
280
     1
102
RTVSPost2010PropOp30
 70
     1
102
RTVSPost2010Prop31
280
     0
102
RTVSPost2010PropOp31
 70
     1
102
RTVSPost2010Prop32
280
     0
102
RTVSPost2010PropOp32
 70
     1
102
RTVSPost2010Prop33
280
     0
102
RTVSPost2010PropOp33
 70
     1
102
RTVSPost2010Prop34
280
     0
102
RTVSPost2010PropOp34
 70
     1
102
RTVSPost2010Prop35
280
     0
102
RTVSPost2010PropOp35
 70
     1
102
RTVSPost2010Prop36
280
     0
102
RTVSPost2010PropOp36
 70
     1
102
RTVSPost2010Prop37
 90
       50
102
RTVSPost2010PropOp37
 70
     1
102
RTVSPost2010Prop38
140
0.0
102
RTVSPost2010PropOp38
 70
     1
102
RTVSPost2010Prop39
140
1.0
102
RTVSPost2010PropOp39
 70
     1
102
RTVSPost2010Prop40
 90
        0
102
RTVSPost2010PropOp40
 70
     1
102
RTVSPost2010Prop41ColorIndex
 90
       18
102
RTVSPost2010Prop41ColorRGB
 90
        0
102
RTVSPost2010PropOp41
 70
     1
102
RTVSPost2010Prop42
 90
       50
102
RTVSPost2010PropOp42
 70
     1
102
RTVSPost2010Prop43
 90
        3
102
RTVSPost2010PropOp43
 70
     1
102
RTVSPost2010Prop44ColorIndex
 90
        5
102
RTVSPost2010Prop44ColorRGB
 90
      255
102
RTVSPost2010PropOp44
 70
     1
102
RTVSPost2010Prop45
280
     0
102
RTVSPost2010PropOp45
 70
     1
102
RTVSPost2010Prop46
 90
       50
102
RTVSPost2010PropOp46
 70
     1
102
RTVSPost2010Prop47
 90
       50
102
RTVSPost2010PropOp47
 70
     1
102
RTVSPost2010Prop48
 90
       50
102
RTVSPost2010PropOp48
 70
     1
102
RTVSPost2010Prop49
280
     0
102
RTVSPost2010PropOp49
 70
     1
102
RTVSPost2010Prop50
 90
       50
102
RTVSPost2010PropOp50
 70
     1
102
RTVSPost2010Prop51ColorIndex
 90
      256
102
RTVSPost2010Prop51ColorRGB
 90
-16777216
102
RTVSPost2010PropOp51
 70
     0
102
RTVSPost2010Prop52
140
1.0
102
RTVSPost2010PropOp52
 70
     0
102
RTVSPost2010Prop53
 90
        2
102
RTVSPost2010PropOp53
 70
     1
102
RTVSPost2010Prop54
  1
strokes_ogs.tif
102
RTVSPost2010PropOp54
 70
     1
102
RTVSPost2010Prop55
280
     0
102
RTVSPost2010PropOp55
 70
     1
102
RTVSPost2010Prop56
140
1.0
102
RTVSPost2010PropOp56
 70
     1
102
RTVSPost2010Prop57
140
1.0
102
RTVSPost2010PropOp57
 70
     1
  0
XRECORD
  5
32D
102
{ACAD_REACTORS
330
32C
102
}
330
32C
100
AcDbXrecord
280
     1
102
RTVSPropertyOp0
 70
     1
102
RTVSPropertyOp1
 70
     1
102
RTVSPropertyOp2
 70
     1
102
RTVSPropertyOp3
 70
     1
102
RTVSPropertyOp4
 70
     1
102
RTVSPropertyOp5
 70
     1
102
RTVSPropertyOp6
 70
     1
102
RTVSPropertyOp7
 70
     1
102
RTVSPropertyOp8
 70
     1
102
RTVSPropertyOp9
 70
     1
102
RTVSPropertyOp10
 70
     1
102
RTVSPropertyOp11
 70
     1
102
RTVSPropertyOp12
 70
     1
102
RTVSPropertyOp13
 70
     1
102
RTVSPropertyOp14
 70
     1
102
RTVSPropertyOp15
 70
     1
102
RTVSPropertyOp16
 70
     1
102
RTVSPropertyOp17
 70
     1
102
RTVSPropertyOp18
 70
     1
102
RTVSPropertyOp19
 70
     1
102
RTVSPropertyOp20
 70
     1
102
RTVSPropertyOp21
 70
     1
102
RTVSPropertyOp22
 70
     1
102
RTVSPropertyOp23
 70
     1
102
RTVSPropertyOp24
 70
     1
102
RTVSPropertyOp25
 70
     1
102
RTVSPropertyOp26
 70
     1
102
RTVSPropertyOp27
 70
     1
102
RTVSPropertyOp28
 70
     1
102
RTVSPropertyOp29
 70
     1
102
RTVSPropertyOp30
 70
     1
102
RTVSPropertyOp31
 70
     1
102
RTVSPropertyOp32
 70
     1
102
RTVSPropertyOp33
 70
     1
102
RTVSPropertyOp34
 70
     1
102
RTVSPropertyOp35
 70
     1
102
RTVSPropertyOp36
 70
     1
102
RTVSPropertyOp37
 70
     1
102
RTVSPropertyOp38
 70
     1
102
RTVSPropertyOp39
 70
     1
102
RTVSPropertyOp40
 70
     1
102
RTVSPropertyOp41
 70
     1
102
RTVSPropertyOp42
 70
     1
102
RTVSPropertyOp43
 70
     1
102
RTVSPropertyOp44
 70
     1
102
RTVSPropertyOp45
 70
     1
102
RTVSPropertyOp46
 70
     1
102
RTVSPropertyOp47
 70
     1
102
RTVSPropertyOp48
 70
     1
102
RTVSPropertyOp49
 70
     1
102
RTVSPropertyOp50
 70
     1
102
RTVSPropertyOp51
 70
     0
102
RTVSPropertyOp52
 70
     0
102
RTVSPropertyOp53
 70
     1
102
RTVSPropertyOp54
 70
     1
102
RTVSPropertyOp55
 70
     1
102
RTVSPropertyOp56
 70
     1
102
RTVSPropertyOp57
 70
     1
102
RTVSPost2010Prop28
280
     0
102
RTVSPost2010PropOp28
 70
     1
102
RTVSPost2010Prop29
280
     1
102
RTVSPost2010PropOp29
 70
     1
102
RTVSPost2010Prop30
280
     1
102
RTVSPost2010PropOp30
 70
     1
102
RTVSPost2010Prop31
280
     0
102
RTVSPost2010PropOp31
 70
     1
102
RTVSPost2010Prop32
280
     0
102
RTVSPost2010PropOp32
 70
     1
102
RTVSPost2010Prop33
280
     0
102
RTVSPost2010PropOp33
 70
     1
102
RTVSPost2010Prop34
280
     0
102
RTVSPost2010PropOp34
 70
     1
102
RTVSPost2010Prop35
280
     0
102
RTVSPost2010PropOp35
 70
     1
102
RTVSPost2010Prop36
280
     0
102
RTVSPost2010PropOp36
 70
     1
102
RTVSPost2010Prop37
 90
       50
102
RTVSPost2010PropOp37
 70
     1
102
RTVSPost2010Prop38
140
0.0
102
RTVSPost2010PropOp38
 70
     1
102
RTVSPost2010Prop39
140
1.0
102
RTVSPost2010PropOp39
 70
     1
102
RTVSPost2010Prop40
 90
        0
102
RTVSPost2010PropOp40
 70
     1
102
RTVSPost2010Prop41ColorIndex
 90
       18
102
RTVSPost2010Prop41ColorRGB
 90
        0
102
RTVSPost2010PropOp41
 70
     1
102
RTVSPost2010Prop42
 90
       50
102
RTVSPost2010PropOp42
 70
     1
102
RTVSPost2010Prop43
 90
        3
102
RTVSPost2010PropOp43
 70
     1
102
RTVSPost2010Prop44ColorIndex
 90
        5
102
RTVSPost2010Prop44ColorRGB
 90
      255
102
RTVSPost2010PropOp44
 70
     1
102
RTVSPost2010Prop45
280
     0
102
RTVSPost2010PropOp45
 70
     1
102
RTVSPost2010Prop46
 90
       50
102
RTVSPost2010PropOp46
 70
     1
102
RTVSPost2010Prop47
 90
       50
102
RTVSPost2010PropOp47
 70
     1
102
RTVSPost2010Prop48
 90
       50
102
RTVSPost2010PropOp48
 70
     1
102
RTVSPost2010Prop49
280
     0
102
RTVSPost2010PropOp49
 70
     1
102
RTVSPost2010Prop50
 90
       50
102
RTVSPost2010PropOp50
 70
     1
102
RTVSPost2010Prop51ColorIndex
 90
      256
102
RTVSPost2010Prop51ColorRGB
 90
-16777216
102
RTVSPost2010PropOp51
 70
     0
102
RTVSPost2010Prop52
140
1.0
102
RTVSPost2010PropOp52
 70
     0
102
RTVSPost2010Prop53
 90
        2
102
RTVSPost2010PropOp53
 70
     1
102
RTVSPost2010Prop54
  1
strokes_ogs.tif
102
RTVSPost2010PropOp54
 70
     1
102
RTVSPost2010Prop55
280
     0
102
RTVSPost2010PropOp55
 70
     1
102
RTVSPost2010Prop56
140
1.0
102
RTVSPost2010PropOp56
 70
     1
102
RTVSPost2010Prop57
140
1.0
102
RTVSPost2010PropOp57
 70
     1
  0
XRECORD
  5
32F
102
{ACAD_REACTORS
330
32E
102
}
330
32E
100
AcDbXrecord
280
     1
102
RTVSPropertyOp0
 70
     1
102
RTVSPropertyOp1
 70
     1
102
RTVSPropertyOp2
 70
     1
102
RTVSPropertyOp3
 70
     1
102
RTVSPropertyOp4
 70
     1
102
RTVSPropertyOp5
 70
     1
102
RTVSPropertyOp6
 70
     1
102
RTVSPropertyOp7
 70
     1
102
RTVSPropertyOp8
 70
     1
102
RTVSPropertyOp9
 70
     1
102
RTVSPropertyOp10
 70
     1
102
RTVSPropertyOp11
 70
     1
102
RTVSPropertyOp12
 70
     1
102
RTVSPropertyOp13
 70
     1
102
RTVSPropertyOp14
 70
     1
102
RTVSPropertyOp15
 70
     1
102
RTVSPropertyOp16
 70
     1
102
RTVSPropertyOp17
 70
     1
102
RTVSPropertyOp18
 70
     1
102
RTVSPropertyOp19
 70
     1
102
RTVSPropertyOp20
 70
     1
102
RTVSPropertyOp21
 70
     1
102
RTVSPropertyOp22
 70
     1
102
RTVSPropertyOp23
 70
     1
102
RTVSPropertyOp24
 70
     1
102
RTVSPropertyOp25
 70
     1
102
RTVSPropertyOp26
 70
     1
102
RTVSPropertyOp27
 70
     1
102
RTVSPropertyOp28
 70
     1
102
RTVSPropertyOp29
 70
     1
102
RTVSPropertyOp30
 70
     1
102
RTVSPropertyOp31
 70
     1
102
RTVSPropertyOp32
 70
     1
102
RTVSPropertyOp33
 70
     1
102
RTVSPropertyOp34
 70
     1
102
RTVSPropertyOp35
 70
     1
102
RTVSPropertyOp36
 70
     1
102
RTVSPropertyOp37
 70
     1
102
RTVSPropertyOp38
 70
     1
102
RTVSPropertyOp39
 70
     1
102
RTVSPropertyOp40
 70
     1
102
RTVSPropertyOp41
 70
     1
102
RTVSPropertyOp42
 70
     1
102
RTVSPropertyOp43
 70
     1
102
RTVSPropertyOp44
 70
     1
102
RTVSPropertyOp45
 70
     1
102
RTVSPropertyOp46
 70
     1
102
RTVSPropertyOp47
 70
     1
102
RTVSPropertyOp48
 70
     1
102
RTVSPropertyOp49
 70
     1
102
RTVSPropertyOp50
 70
     1
102
RTVSPropertyOp51
 70
     0
102
RTVSPropertyOp52
 70
     0
102
RTVSPropertyOp53
 70
     1
102
RTVSPropertyOp54
 70
     1
102
RTVSPropertyOp55
 70
     1
102
RTVSPropertyOp56
 70
     1
102
RTVSPropertyOp57
 70
     1
102
RTVSPost2010Prop28
280
     0
102
RTVSPost2010PropOp28
 70
     1
102
RTVSPost2010Prop29
280
     1
102
RTVSPost2010PropOp29
 70
     1
102
RTVSPost2010Prop30
280
     1
102
RTVSPost2010PropOp30
 70
     1
102
RTVSPost2010Prop31
280
     0
102
RTVSPost2010PropOp31
 70
     1
102
RTVSPost2010Prop32
280
     0
102
RTVSPost2010PropOp32
 70
     1
102
RTVSPost2010Prop33
280
     0
102
RTVSPost2010PropOp33
 70
     1
102
RTVSPost2010Prop34
280
     0
102
RTVSPost2010PropOp34
 70
     1
102
RTVSPost2010Prop35
280
     0
102
RTVSPost2010PropOp35
 70
     1
102
RTVSPost2010Prop36
280
     0
102
RTVSPost2010PropOp36
 70
     1
102
RTVSPost2010Prop37
 90
       50
102
RTVSPost2010PropOp37
 70
     1
102
RTVSPost2010Prop38
140
0.0
102
RTVSPost2010PropOp38
 70
     1
102
RTVSPost2010Prop39
140
1.0
102
RTVSPost2010PropOp39
 70
     1
102
RTVSPost2010Prop40
 90
        0
102
RTVSPost2010PropOp40
 70
     1
102
RTVSPost2010Prop41ColorIndex
 90
       18
102
RTVSPost2010Prop41ColorRGB
 90
        0
102
RTVSPost2010PropOp41
 70
     1
102
RTVSPost2010Prop42
 90
       50
102
RTVSPost2010PropOp42
 70
     1
102
RTVSPost2010Prop43
 90
        3
102
RTVSPost2010PropOp43
 70
     1
102
RTVSPost2010Prop44ColorIndex
 90
        5
102
RTVSPost2010Prop44ColorRGB
 90
      255
102
RTVSPost2010PropOp44
 70
     1
102
RTVSPost2010Prop45
280
     0
102
RTVSPost2010PropOp45
 70
     1
102
RTVSPost2010Prop46
 90
       50
102
RTVSPost2010PropOp46
 70
     1
102
RTVSPost2010Prop47
 90
       50
102
RTVSPost2010PropOp47
 70
     1
102
RTVSPost2010Prop48
 90
       50
102
RTVSPost2010PropOp48
 70
     1
102
RTVSPost2010Prop49
280
     0
102
RTVSPost2010PropOp49
 70
     1
102
RTVSPost2010Prop50
 90
       50
102
RTVSPost2010PropOp50
 70
     1
102
RTVSPost2010Prop51ColorIndex
 90
      256
102
RTVSPost2010Prop51ColorRGB
 90
-16777216
102
RTVSPost2010PropOp51
 70
     0
102
RTVSPost2010Prop52
140
1.0
102
RTVSPost2010PropOp52
 70
     0
102
RTVSPost2010Prop53
 90
        2
102
RTVSPost2010PropOp53
 70
     1
102
RTVSPost2010Prop54
  1
strokes_ogs.tif
102
RTVSPost2010PropOp54
 70
     1
102
RTVSPost2010Prop55
280
     0
102
RTVSPost2010PropOp55
 70
     1
102
RTVSPost2010Prop56
140
1.0
102
RTVSPost2010PropOp56
 70
     1
102
RTVSPost2010Prop57
140
1.0
102
RTVSPost2010PropOp57
 70
     1
  0
XRECORD
  5
331
102
{ACAD_REACTORS
330
330
102
}
330
330
100
AcDbXrecord
280
     1
102
RTVSPropertyOp0
 70
     1
102
RTVSPropertyOp1
 70
     1
102
RTVSPropertyOp2
 70
     1
102
RTVSPropertyOp3
 70
     1
102
RTVSPropertyOp4
 70
     1
102
RTVSPropertyOp5
 70
     1
102
RTVSPropertyOp6
 70
     1
102
RTVSPropertyOp7
 70
     1
102
RTVSPropertyOp8
 70
     1
102
RTVSPropertyOp9
 70
     1
102
RTVSPropertyOp10
 70
     1
102
RTVSPropertyOp11
 70
     1
102
RTVSPropertyOp12
 70
     1
102
RTVSPropertyOp13
 70
     1
102
RTVSPropertyOp14
 70
     1
102
RTVSPropertyOp15
 70
     1
102
RTVSPropertyOp16
 70
     1
102
RTVSPropertyOp17
 70
     1
102
RTVSPropertyOp18
 70
     1
102
RTVSPropertyOp19
 70
     1
102
RTVSPropertyOp20
 70
     1
102
RTVSPropertyOp21
 70
     1
102
RTVSPropertyOp22
 70
     1
102
RTVSPropertyOp23
 70
     1
102
RTVSPropertyOp24
 70
     1
102
RTVSPropertyOp25
 70
     1
102
RTVSPropertyOp26
 70
     1
102
RTVSPropertyOp27
 70
     1
102
RTVSPropertyOp28
 70
     1
102
RTVSPropertyOp29
 70
     1
102
RTVSPropertyOp30
 70
     1
102
RTVSPropertyOp31
 70
     1
102
RTVSPropertyOp32
 70
     1
102
RTVSPropertyOp33
 70
     1
102
RTVSPropertyOp34
 70
     1
102
RTVSPropertyOp35
 70
     1
102
RTVSPropertyOp36
 70
     1
102
RTVSPropertyOp37
 70
     1
102
RTVSPropertyOp38
 70
     1
102
RTVSPropertyOp39
 70
     1
102
RTVSPropertyOp40
 70
     1
102
RTVSPropertyOp41
 70
     1
102
RTVSPropertyOp42
 70
     1
102
RTVSPropertyOp43
 70
     1
102
RTVSPropertyOp44
 70
     1
102
RTVSPropertyOp45
 70
     1
102
RTVSPropertyOp46
 70
     1
102
RTVSPropertyOp47
 70
     1
102
RTVSPropertyOp48
 70
     1
102
RTVSPropertyOp49
 70
     1
102
RTVSPropertyOp50
 70
     1
102
RTVSPropertyOp51
 70
     0
102
RTVSPropertyOp52
 70
     0
102
RTVSPropertyOp53
 70
     1
102
RTVSPropertyOp54
 70
     1
102
RTVSPropertyOp55
 70
     1
102
RTVSPropertyOp56
 70
     1
102
RTVSPropertyOp57
 70
     1
102
RTVSPost2010Prop28
280
     0
102
RTVSPost2010PropOp28
 70
     1
102
RTVSPost2010Prop29
280
     1
102
RTVSPost2010PropOp29
 70
     1
102
RTVSPost2010Prop30
280
     1
102
RTVSPost2010PropOp30
 70
     1
102
RTVSPost2010Prop31
280
     0
102
RTVSPost2010PropOp31
 70
     1
102
RTVSPost2010Prop32
280
     0
102
RTVSPost2010PropOp32
 70
     1
102
RTVSPost2010Prop33
280
     0
102
RTVSPost2010PropOp33
 70
     1
102
RTVSPost2010Prop34
280
     0
102
RTVSPost2010PropOp34
 70
     1
102
RTVSPost2010Prop35
280
     0
102
RTVSPost2010PropOp35
 70
     1
102
RTVSPost2010Prop36
280
     0
102
RTVSPost2010PropOp36
 70
     1
102
RTVSPost2010Prop37
 90
       50
102
RTVSPost2010PropOp37
 70
     1
102
RTVSPost2010Prop38
140
0.0
102
RTVSPost2010PropOp38
 70
     1
102
RTVSPost2010Prop39
140
1.0
102
RTVSPost2010PropOp39
 70
     1
102
RTVSPost2010Prop40
 90
        0
102
RTVSPost2010PropOp40
 70
     1
102
RTVSPost2010Prop41ColorIndex
 90
       18
102
RTVSPost2010Prop41ColorRGB
 90
        0
102
RTVSPost2010PropOp41
 70
     1
102
RTVSPost2010Prop42
 90
       50
102
RTVSPost2010PropOp42
 70
     1
102
RTVSPost2010Prop43
 90
        3
102
RTVSPost2010PropOp43
 70
     1
102
RTVSPost2010Prop44ColorIndex
 90
        5
102
RTVSPost2010Prop44ColorRGB
 90
      255
102
RTVSPost2010PropOp44
 70
     1
102
RTVSPost2010Prop45
280
     0
102
RTVSPost2010PropOp45
 70
     1
102
RTVSPost2010Prop46
 90
       50
102
RTVSPost2010PropOp46
 70
     1
102
RTVSPost2010Prop47
 90
       50
102
RTVSPost2010PropOp47
 70
     1
102
RTVSPost2010Prop48
 90
       50
102
RTVSPost2010PropOp48
 70
     1
102
RTVSPost2010Prop49
280
     0
102
RTVSPost2010PropOp49
 70
     1
102
RTVSPost2010Prop50
 90
       50
102
RTVSPost2010PropOp50
 70
     1
102
RTVSPost2010Prop51ColorIndex
 90
      256
102
RTVSPost2010Prop51ColorRGB
 90
-16777216
102
RTVSPost2010PropOp51
 70
     0
102
RTVSPost2010Prop52
140
1.0
102
RTVSPost2010PropOp52
 70
     0
102
RTVSPost2010Prop53
 90
        2
102
RTVSPost2010PropOp53
 70
     1
102
RTVSPost2010Prop54
  1
strokes_ogs.tif
102
RTVSPost2010PropOp54
 70
     1
102
RTVSPost2010Prop55
280
     0
102
RTVSPost2010PropOp55
 70
     1
102
RTVSPost2010Prop56
140
1.0
102
RTVSPost2010PropOp56
 70
     1
102
RTVSPost2010Prop57
140
1.0
102
RTVSPost2010PropOp57
 70
     1
  0
XRECORD
  5
337
102
{ACAD_REACTORS
330
336
102
}
330
336
100
AcDbXrecord
280
     1
102
RTVSPropertyOp0
 70
     1
102
RTVSPropertyOp1
 70
     1
102
RTVSPropertyOp2
 70
     1
102
RTVSPropertyOp3
 70
     1
102
RTVSPropertyOp4
 70
     1
102
RTVSPropertyOp5
 70
     1
102
RTVSPropertyOp6
 70
     1
102
RTVSPropertyOp7
 70
     1
102
RTVSPropertyOp8
 70
     1
102
RTVSPropertyOp9
 70
     1
102
RTVSPropertyOp10
 70
     1
102
RTVSPropertyOp11
 70
     1
102
RTVSPropertyOp12
 70
     1
102
RTVSPropertyOp13
 70
     1
102
RTVSPropertyOp14
 70
     1
102
RTVSPropertyOp15
 70
     1
102
RTVSPropertyOp16
 70
     1
102
RTVSPropertyOp17
 70
     1
102
RTVSPropertyOp18
 70
     1
102
RTVSPropertyOp19
 70
     1
102
RTVSPropertyOp20
 70
     1
102
RTVSPropertyOp21
 70
     1
102
RTVSPropertyOp22
 70
     1
102
RTVSPropertyOp23
 70
     1
102
RTVSPropertyOp24
 70
     1
102
RTVSPropertyOp25
 70
     1
102
RTVSPropertyOp26
 70
     1
102
RTVSPropertyOp27
 70
     1
102
RTVSPropertyOp28
 70
     1
102
RTVSPropertyOp29
 70
     1
102
RTVSPropertyOp30
 70
     1
102
RTVSPropertyOp31
 70
     1
102
RTVSPropertyOp32
 70
     1
102
RTVSPropertyOp33
 70
     1
102
RTVSPropertyOp34
 70
     1
102
RTVSPropertyOp35
 70
     1
102
RTVSPropertyOp36
 70
     1
102
RTVSPropertyOp37
 70
     1
102
RTVSPropertyOp38
 70
     1
102
RTVSPropertyOp39
 70
     1
102
RTVSPropertyOp40
 70
     1
102
RTVSPropertyOp41
 70
     1
102
RTVSPropertyOp42
 70
     1
102
RTVSPropertyOp43
 70
     1
102
RTVSPropertyOp44
 70
     1
102
RTVSPropertyOp45
 70
     1
102
RTVSPropertyOp46
 70
     1
102
RTVSPropertyOp47
 70
     1
102
RTVSPropertyOp48
 70
     1
102
RTVSPropertyOp49
 70
     1
102
RTVSPropertyOp50
 70
     1
102
RTVSPropertyOp51
 70
     0
102
RTVSPropertyOp52
 70
     0
102
RTVSPropertyOp53
 70
     1
102
RTVSPropertyOp54
 70
     1
102
RTVSPropertyOp55
 70
     1
102
RTVSPropertyOp56
 70
     1
102
RTVSPropertyOp57
 70
     1
102
RTVSPost2010Prop28
280
     0
102
RTVSPost2010PropOp28
 70
     1
102
RTVSPost2010Prop29
280
     1
102
RTVSPost2010PropOp29
 70
     1
102
RTVSPost2010Prop30
280
     1
102
RTVSPost2010PropOp30
 70
     1
102
RTVSPost2010Prop31
280
     0
102
RTVSPost2010PropOp31
 70
     1
102
RTVSPost2010Prop32
280
     0
102
RTVSPost2010PropOp32
 70
     1
102
RTVSPost2010Prop33
280
     0
102
RTVSPost2010PropOp33
 70
     1
102
RTVSPost2010Prop34
280
     0
102
RTVSPost2010PropOp34
 70
     1
102
RTVSPost2010Prop35
280
     0
102
RTVSPost2010PropOp35
 70
     1
102
RTVSPost2010Prop36
280
     0
102
RTVSPost2010PropOp36
 70
     1
102
RTVSPost2010Prop37
 90
       50
102
RTVSPost2010PropOp37
 70
     1
102
RTVSPost2010Prop38
140
0.0
102
RTVSPost2010PropOp38
 70
     1
102
RTVSPost2010Prop39
140
1.0
102
RTVSPost2010PropOp39
 70
     1
102
RTVSPost2010Prop40
 90
        0
102
RTVSPost2010PropOp40
 70
     1
102
RTVSPost2010Prop41ColorIndex
 90
       18
102
RTVSPost2010Prop41ColorRGB
 90
        0
102
RTVSPost2010PropOp41
 70
     1
102
RTVSPost2010Prop42
 90
       50
102
RTVSPost2010PropOp42
 70
     1
102
RTVSPost2010Prop43
 90
        3
102
RTVSPost2010PropOp43
 70
     1
102
RTVSPost2010Prop44ColorIndex
 90
        5
102
RTVSPost2010Prop44ColorRGB
 90
      255
102
RTVSPost2010PropOp44
 70
     1
102
RTVSPost2010Prop45
280
     0
102
RTVSPost2010PropOp45
 70
     1
102
RTVSPost2010Prop46
 90
       50
102
RTVSPost2010PropOp46
 70
     1
102
RTVSPost2010Prop47
 90
       50
102
RTVSPost2010PropOp47
 70
     1
102
RTVSPost2010Prop48
 90
       50
102
RTVSPost2010PropOp48
 70
     1
102
RTVSPost2010Prop49
280
     0
102
RTVSPost2010PropOp49
 70
     1
102
RTVSPost2010Prop50
 90
       50
102
RTVSPost2010PropOp50
 70
     1
102
RTVSPost2010Prop51ColorIndex
 90
      256
102
RTVSPost2010Prop51ColorRGB
 90
-16777216
102
RTVSPost2010PropOp51
 70
     0
102
RTVSPost2010Prop52
140
1.0
102
RTVSPost2010PropOp52
 70
     0
102
RTVSPost2010Prop53
 90
        2
102
RTVSPost2010PropOp53
 70
     1
102
RTVSPost2010Prop54
  1
strokes_ogs.tif
102
RTVSPost2010PropOp54
 70
     1
102
RTVSPost2010Prop55
280
     0
102
RTVSPost2010PropOp55
 70
     1
102
RTVSPost2010Prop56
140
1.0
102
RTVSPost2010PropOp56
 70
     1
102
RTVSPost2010Prop57
140
1.0
102
RTVSPost2010PropOp57
 70
     1
  0
XRECORD
  5
34B
102
{ACAD_REACTORS
330
34A
102
}
330
34A
100
AcDbXrecord
280
     1
102
RTVSPropertyOp0
 70
     0
102
RTVSPropertyOp1
 70
     0
102
RTVSPropertyOp2
 70
     0
102
RTVSPropertyOp3
 70
     0
102
RTVSPropertyOp4
 70
     0
102
RTVSPropertyOp5
 70
     0
102
RTVSPropertyOp6
 70
     0
102
RTVSPropertyOp7
 70
     0
102
RTVSPropertyOp8
 70
     0
102
RTVSPropertyOp9
 70
     0
102
RTVSPropertyOp10
 70
     0
102
RTVSPropertyOp11
 70
     0
102
RTVSPropertyOp12
 70
     0
102
RTVSPropertyOp13
 70
     0
102
RTVSPropertyOp14
 70
     2
102
RTVSPropertyOp15
 70
     0
102
RTVSPropertyOp16
 70
     0
102
RTVSPropertyOp17
 70
     0
102
RTVSPropertyOp18
 70
     0
102
RTVSPropertyOp19
 70
     0
102
RTVSPropertyOp20
 70
     0
102
RTVSPropertyOp21
 70
     0
102
RTVSPropertyOp22
 70
     0
102
RTVSPropertyOp23
 70
     0
102
RTVSPropertyOp24
 70
     0
102
RTVSPropertyOp25
 70
     0
102
RTVSPropertyOp26
 70
     0
102
RTVSPropertyOp27
 70
     0
102
RTVSPropertyOp28
 70
     0
102
RTVSPropertyOp29
 70
     0
102
RTVSPropertyOp30
 70
     0
102
RTVSPropertyOp31
 70
     0
102
RTVSPropertyOp32
 70
     0
102
RTVSPropertyOp33
 70
     0
102
RTVSPropertyOp34
 70
     0
102
RTVSPropertyOp35
 70
     0
102
RTVSPropertyOp36
 70
     0
102
RTVSPropertyOp37
 70
     0
102
RTVSPropertyOp38
 70
     0
102
RTVSPropertyOp39
 70
     0
102
RTVSPropertyOp40
 70
     0
102
RTVSPropertyOp41
 70
     0
102
RTVSPropertyOp42
 70
     0
102
RTVSPropertyOp43
 70
     0
102
RTVSPropertyOp44
 70
     0
102
RTVSPropertyOp45
 70
     0
102
RTVSPropertyOp46
 70
     0
102
RTVSPropertyOp47
 70
     0
102
RTVSPropertyOp48
 70
     0
102
RTVSPropertyOp49
 70
     0
102
RTVSPropertyOp50
 70
     0
102
RTVSPropertyOp51
 70
     0
102
RTVSPropertyOp52
 70
     0
102
RTVSPropertyOp53
 70
     0
102
RTVSPropertyOp54
 70
     0
102
RTVSPropertyOp55
 70
     0
102
RTVSPropertyOp56
 70
     0
102
RTVSPropertyOp57
 70
     0
102
RTVSPost2010Prop28
280
     0
102
RTVSPost2010PropOp28
 70
     0
102
RTVSPost2010Prop29
280
     1
102
RTVSPost2010PropOp29
 70
     0
102
RTVSPost2010Prop30
280
     1
102
RTVSPost2010PropOp30
 70
     0
102
RTVSPost2010Prop31
280
     0
102
RTVSPost2010PropOp31
 70
     0
102
RTVSPost2010Prop32
280
     0
102
RTVSPost2010PropOp32
 70
     0
102
RTVSPost2010Prop33
280
     0
102
RTVSPost2010PropOp33
 70
     0
102
RTVSPost2010Prop34
280
     0
102
RTVSPost2010PropOp34
 70
     0
102
RTVSPost2010Prop35
280
     0
102
RTVSPost2010PropOp35
 70
     0
102
RTVSPost2010Prop36
280
     0
102
RTVSPost2010PropOp36
 70
     0
102
RTVSPost2010Prop37
 90
       50
102
RTVSPost2010PropOp37
 70
     0
102
RTVSPost2010Prop38
140
0.0
102
RTVSPost2010PropOp38
 70
     0
102
RTVSPost2010Prop39
140
1.0
102
RTVSPost2010PropOp39
 70
     0
102
RTVSPost2010Prop40
 90
        0
102
RTVSPost2010PropOp40
 70
     0
102
RTVSPost2010Prop41ColorIndex
 90
       18
102
RTVSPost2010Prop41ColorRGB
 90
        0
102
RTVSPost2010PropOp41
 70
     0
102
RTVSPost2010Prop42
 90
       50
102
RTVSPost2010PropOp42
 70
     0
102
RTVSPost2010Prop43
 90
        3
102
RTVSPost2010PropOp43
 70
     0
102
RTVSPost2010Prop44ColorIndex
 90
        5
102
RTVSPost2010Prop44ColorRGB
 90
      255
102
RTVSPost2010PropOp44
 70
     0
102
RTVSPost2010Prop45
280
     0
102
RTVSPost2010PropOp45
 70
     0
102
RTVSPost2010Prop46
 90
       50
102
RTVSPost2010PropOp46
 70
     0
102
RTVSPost2010Prop47
 90
       50
102
RTVSPost2010PropOp47
 70
     0
102
RTVSPost2010Prop48
 90
       50
102
RTVSPost2010PropOp48
 70
     0
102
RTVSPost2010Prop49
280
     0
102
RTVSPost2010PropOp49
 70
     0
102
RTVSPost2010Prop50
 90
       50
102
RTVSPost2010PropOp50
 70
     0
102
RTVSPost2010Prop51ColorIndex
 90
      256
102
RTVSPost2010Prop51ColorRGB
 90
-16777216
102
RTVSPost2010PropOp51
 70
     0
102
RTVSPost2010Prop52
140
1.0
102
RTVSPost2010PropOp52
 70
     0
102
RTVSPost2010Prop53
 90
        2
102
RTVSPost2010PropOp53
 70
     0
102
RTVSPost2010Prop54
  1
strokes_ogs.tif
102
RTVSPost2010PropOp54
 70
     0
102
RTVSPost2010Prop55
280
     0
102
RTVSPost2010PropOp55
 70
     0
102
RTVSPost2010Prop56
140
1.0
102
RTVSPost2010PropOp56
 70
     0
102
RTVSPost2010Prop57
140
1.0
102
RTVSPost2010PropOp57
 70
     0
  0
XRECORD
  5
345
102
{ACAD_REACTORS
330
344
102
}
330
344
100
AcDbXrecord
280
     1
102
RTVSPropertyOp0
 70
     1
102
RTVSPropertyOp1
 70
     1
102
RTVSPropertyOp2
 70
     1
102
RTVSPropertyOp3
 70
     1
102
RTVSPropertyOp4
 70
     1
102
RTVSPropertyOp5
 70
     1
102
RTVSPropertyOp6
 70
     1
102
RTVSPropertyOp7
 70
     1
102
RTVSPropertyOp8
 70
     1
102
RTVSPropertyOp9
 70
     1
102
RTVSPropertyOp10
 70
     1
102
RTVSPropertyOp11
 70
     1
102
RTVSPropertyOp12
 70
     1
102
RTVSPropertyOp13
 70
     1
102
RTVSPropertyOp14
 70
     1
102
RTVSPropertyOp15
 70
     1
102
RTVSPropertyOp16
 70
     1
102
RTVSPropertyOp17
 70
     1
102
RTVSPropertyOp18
 70
     1
102
RTVSPropertyOp19
 70
     1
102
RTVSPropertyOp20
 70
     1
102
RTVSPropertyOp21
 70
     1
102
RTVSPropertyOp22
 70
     1
102
RTVSPropertyOp23
 70
     1
102
RTVSPropertyOp24
 70
     1
102
RTVSPropertyOp25
 70
     1
102
RTVSPropertyOp26
 70
     1
102
RTVSPropertyOp27
 70
     1
102
RTVSPropertyOp28
 70
     1
102
RTVSPropertyOp29
 70
     1
102
RTVSPropertyOp30
 70
     1
102
RTVSPropertyOp31
 70
     1
102
RTVSPropertyOp32
 70
     1
102
RTVSPropertyOp33
 70
     1
102
RTVSPropertyOp34
 70
     1
102
RTVSPropertyOp35
 70
     1
102
RTVSPropertyOp36
 70
     1
102
RTVSPropertyOp37
 70
     1
102
RTVSPropertyOp38
 70
     1
102
RTVSPropertyOp39
 70
     1
102
RTVSPropertyOp40
 70
     1
102
RTVSPropertyOp41
 70
     1
102
RTVSPropertyOp42
 70
     1
102
RTVSPropertyOp43
 70
     1
102
RTVSPropertyOp44
 70
     1
102
RTVSPropertyOp45
 70
     1
102
RTVSPropertyOp46
 70
     1
102
RTVSPropertyOp47
 70
     1
102
RTVSPropertyOp48
 70
     1
102
RTVSPropertyOp49
 70
     1
102
RTVSPropertyOp50
 70
     1
102
RTVSPropertyOp51
 70
     0
102
RTVSPropertyOp52
 70
     0
102
RTVSPropertyOp53
 70
     1
102
RTVSPropertyOp54
 70
     1
102
RTVSPropertyOp55
 70
     1
102
RTVSPropertyOp56
 70
     1
102
RTVSPropertyOp57
 70
     1
102
RTVSPost2010Prop28
280
     0
102
RTVSPost2010PropOp28
 70
     1
102
RTVSPost2010Prop29
280
     1
102
RTVSPost2010PropOp29
 70
     1
102
RTVSPost2010Prop30
280
     1
102
RTVSPost2010PropOp30
 70
     1
102
RTVSPost2010Prop31
280
     0
102
RTVSPost2010PropOp31
 70
     1
102
RTVSPost2010Prop32
280
     0
102
RTVSPost2010PropOp32
 70
     1
102
RTVSPost2010Prop33
280
     0
102
RTVSPost2010PropOp33
 70
     1
102
RTVSPost2010Prop34
280
     0
102
RTVSPost2010PropOp34
 70
     1
102
RTVSPost2010Prop35
280
     0
102
RTVSPost2010PropOp35
 70
     1
102
RTVSPost2010Prop36
280
     0
102
RTVSPost2010PropOp36
 70
     1
102
RTVSPost2010Prop37
 90
       50
102
RTVSPost2010PropOp37
 70
     1
102
RTVSPost2010Prop38
140
0.0
102
RTVSPost2010PropOp38
 70
     1
102
RTVSPost2010Prop39
140
1.0
102
RTVSPost2010PropOp39
 70
     1
102
RTVSPost2010Prop40
 90
        0
102
RTVSPost2010PropOp40
 70
     1
102
RTVSPost2010Prop41ColorIndex
 90
       18
102
RTVSPost2010Prop41ColorRGB
 90
        0
102
RTVSPost2010PropOp41
 70
     1
102
RTVSPost2010Prop42
 90
       50
102
RTVSPost2010PropOp42
 70
     1
102
RTVSPost2010Prop43
 90
        3
102
RTVSPost2010PropOp43
 70
     1
102
RTVSPost2010Prop44ColorIndex
 90
        5
102
RTVSPost2010Prop44ColorRGB
 90
      255
102
RTVSPost2010PropOp44
 70
     1
102
RTVSPost2010Prop45
280
     0
102
RTVSPost2010PropOp45
 70
     1
102
RTVSPost2010Prop46
 90
       50
102
RTVSPost2010PropOp46
 70
     1
102
RTVSPost2010Prop47
 90
       50
102
RTVSPost2010PropOp47
 70
     1
102
RTVSPost2010Prop48
 90
       50
102
RTVSPost2010PropOp48
 70
     1
102
RTVSPost2010Prop49
280
     0
102
RTVSPost2010PropOp49
 70
     1
102
RTVSPost2010Prop50
 90
       50
102
RTVSPost2010PropOp50
 70
     1
102
RTVSPost2010Prop51ColorIndex
 90
      256
102
RTVSPost2010Prop51ColorRGB
 90
-16777216
102
RTVSPost2010PropOp51
 70
     0
102
RTVSPost2010Prop52
140
1.0
102
RTVSPost2010PropOp52
 70
     0
102
RTVSPost2010Prop53
 90
        2
102
RTVSPost2010PropOp53
 70
     1
102
RTVSPost2010Prop54
  1
strokes_ogs.tif
102
RTVSPost2010PropOp54
 70
     1
102
RTVSPost2010Prop55
280
     0
102
RTVSPost2010PropOp55
 70
     1
102
RTVSPost2010Prop56
140
1.0
102
RTVSPost2010PropOp56
 70
     1
102
RTVSPost2010Prop57
140
1.0
102
RTVSPost2010PropOp57
 70
     1
  0
XRECORD
  5
34D
102
{ACAD_REACTORS
330
34C
102
}
330
34C
100
AcDbXrecord
280
     1
102
RTVSPropertyOp0
 70
     0
102
RTVSPropertyOp1
 70
     0
102
RTVSPropertyOp2
 70
     0
102
RTVSPropertyOp3
 70
     0
102
RTVSPropertyOp4
 70
     0
102
RTVSPropertyOp5
 70
     0
102
RTVSPropertyOp6
 70
     0
102
RTVSPropertyOp7
 70
     0
102
RTVSPropertyOp8
 70
     0
102
RTVSPropertyOp9
 70
     0
102
RTVSPropertyOp10
 70
     0
102
RTVSPropertyOp11
 70
     0
102
RTVSPropertyOp12
 70
     0
102
RTVSPropertyOp13
 70
     0
102
RTVSPropertyOp14
 70
     2
102
RTVSPropertyOp15
 70
     0
102
RTVSPropertyOp16
 70
     0
102
RTVSPropertyOp17
 70
     0
102
RTVSPropertyOp18
 70
     0
102
RTVSPropertyOp19
 70
     0
102
RTVSPropertyOp20
 70
     0
102
RTVSPropertyOp21
 70
     0
102
RTVSPropertyOp22
 70
     0
102
RTVSPropertyOp23
 70
     0
102
RTVSPropertyOp24
 70
     0
102
RTVSPropertyOp25
 70
     0
102
RTVSPropertyOp26
 70
     0
102
RTVSPropertyOp27
 70
     0
102
RTVSPropertyOp28
 70
     0
102
RTVSPropertyOp29
 70
     0
102
RTVSPropertyOp30
 70
     0
102
RTVSPropertyOp31
 70
     0
102
RTVSPropertyOp32
 70
     0
102
RTVSPropertyOp33
 70
     0
102
RTVSPropertyOp34
 70
     0
102
RTVSPropertyOp35
 70
     0
102
RTVSPropertyOp36
 70
     0
102
RTVSPropertyOp37
 70
     0
102
RTVSPropertyOp38
 70
     0
102
RTVSPropertyOp39
 70
     0
102
RTVSPropertyOp40
 70
     0
102
RTVSPropertyOp41
 70
     0
102
RTVSPropertyOp42
 70
     0
102
RTVSPropertyOp43
 70
     0
102
RTVSPropertyOp44
 70
     0
102
RTVSPropertyOp45
 70
     0
102
RTVSPropertyOp46
 70
     0
102
RTVSPropertyOp47
 70
     0
102
RTVSPropertyOp48
 70
     0
102
RTVSPropertyOp49
 70
     0
102
RTVSPropertyOp50
 70
     0
102
RTVSPropertyOp51
 70
     0
102
RTVSPropertyOp52
 70
     0
102
RTVSPropertyOp53
 70
     0
102
RTVSPropertyOp54
 70
     0
102
RTVSPropertyOp55
 70
     0
102
RTVSPropertyOp56
 70
     0
102
RTVSPropertyOp57
 70
     0
102
RTVSPost2010Prop28
280
     0
102
RTVSPost2010PropOp28
 70
     0
102
RTVSPost2010Prop29
280
     1
102
RTVSPost2010PropOp29
 70
     0
102
RTVSPost2010Prop30
280
     1
102
RTVSPost2010PropOp30
 70
     0
102
RTVSPost2010Prop31
280
     0
102
RTVSPost2010PropOp31
 70
     0
102
RTVSPost2010Prop32
280
     0
102
RTVSPost2010PropOp32
 70
     0
102
RTVSPost2010Prop33
280
     0
102
RTVSPost2010PropOp33
 70
     0
102
RTVSPost2010Prop34
280
     0
102
RTVSPost2010PropOp34
 70
     0
102
RTVSPost2010Prop35
280
     0
102
RTVSPost2010PropOp35
 70
     0
102
RTVSPost2010Prop36
280
     0
102
RTVSPost2010PropOp36
 70
     0
102
RTVSPost2010Prop37
 90
       50
102
RTVSPost2010PropOp37
 70
     0
102
RTVSPost2010Prop38
140
0.0
102
RTVSPost2010PropOp38
 70
     0
102
RTVSPost2010Prop39
140
1.0
102
RTVSPost2010PropOp39
 70
     0
102
RTVSPost2010Prop40
 90
        0
102
RTVSPost2010PropOp40
 70
     0
102
RTVSPost2010Prop41ColorIndex
 90
       18
102
RTVSPost2010Prop41ColorRGB
 90
        0
102
RTVSPost2010PropOp41
 70
     0
102
RTVSPost2010Prop42
 90
       50
102
RTVSPost2010PropOp42
 70
     0
102
RTVSPost2010Prop43
 90
        3
102
RTVSPost2010PropOp43
 70
     0
102
RTVSPost2010Prop44ColorIndex
 90
        5
102
RTVSPost2010Prop44ColorRGB
 90
      255
102
RTVSPost2010PropOp44
 70
     0
102
RTVSPost2010Prop45
280
     0
102
RTVSPost2010PropOp45
 70
     0
102
RTVSPost2010Prop46
 90
       50
102
RTVSPost2010PropOp46
 70
     0
102
RTVSPost2010Prop47
 90
       50
102
RTVSPost2010PropOp47
 70
     0
102
RTVSPost2010Prop48
 90
       50
102
RTVSPost2010PropOp48
 70
     0
102
RTVSPost2010Prop49
280
     0
102
RTVSPost2010PropOp49
 70
     0
102
RTVSPost2010Prop50
 90
       50
102
RTVSPost2010PropOp50
 70
     0
102
RTVSPost2010Prop51ColorIndex
 90
      256
102
RTVSPost2010Prop51ColorRGB
 90
-16777216
102
RTVSPost2010PropOp51
 70
     0
102
RTVSPost2010Prop52
140
1.0
102
RTVSPost2010PropOp52
 70
     0
102
RTVSPost2010Prop53
 90
        2
102
RTVSPost2010PropOp53
 70
     0
102
RTVSPost2010Prop54
  1
strokes_ogs.tif
102
RTVSPost2010PropOp54
 70
     0
102
RTVSPost2010Prop55
280
     0
102
RTVSPost2010PropOp55
 70
     0
102
RTVSPost2010Prop56
140
1.0
102
RTVSPost2010PropOp56
 70
     0
102
RTVSPost2010Prop57
140
1.0
102
RTVSPost2010PropOp57
 70
     0
  0
XRECORD
  5
33B
102
{ACAD_REACTORS
330
33A
102
}
330
33A
100
AcDbXrecord
280
     1
102
RTVSPropertyOp0
 70
     1
102
RTVSPropertyOp1
 70
     1
102
RTVSPropertyOp2
 70
     1
102
RTVSPropertyOp3
 70
     1
102
RTVSPropertyOp4
 70
     1
102
RTVSPropertyOp5
 70
     1
102
RTVSPropertyOp6
 70
     1
102
RTVSPropertyOp7
 70
     1
102
RTVSPropertyOp8
 70
     1
102
RTVSPropertyOp9
 70
     1
102
RTVSPropertyOp10
 70
     1
102
RTVSPropertyOp11
 70
     1
102
RTVSPropertyOp12
 70
     1
102
RTVSPropertyOp13
 70
     1
102
RTVSPropertyOp14
 70
     1
102
RTVSPropertyOp15
 70
     1
102
RTVSPropertyOp16
 70
     1
102
RTVSPropertyOp17
 70
     1
102
RTVSPropertyOp18
 70
     1
102
RTVSPropertyOp19
 70
     1
102
RTVSPropertyOp20
 70
     1
102
RTVSPropertyOp21
 70
     1
102
RTVSPropertyOp22
 70
     1
102
RTVSPropertyOp23
 70
     1
102
RTVSPropertyOp24
 70
     1
102
RTVSPropertyOp25
 70
     1
102
RTVSPropertyOp26
 70
     1
102
RTVSPropertyOp27
 70
     1
102
RTVSPropertyOp28
 70
     1
102
RTVSPropertyOp29
 70
     1
102
RTVSPropertyOp30
 70
     1
102
RTVSPropertyOp31
 70
     1
102
RTVSPropertyOp32
 70
     1
102
RTVSPropertyOp33
 70
     1
102
RTVSPropertyOp34
 70
     1
102
RTVSPropertyOp35
 70
     1
102
RTVSPropertyOp36
 70
     1
102
RTVSPropertyOp37
 70
     1
102
RTVSPropertyOp38
 70
     1
102
RTVSPropertyOp39
 70
     1
102
RTVSPropertyOp40
 70
     1
102
RTVSPropertyOp41
 70
     1
102
RTVSPropertyOp42
 70
     1
102
RTVSPropertyOp43
 70
     1
102
RTVSPropertyOp44
 70
     1
102
RTVSPropertyOp45
 70
     1
102
RTVSPropertyOp46
 70
     1
102
RTVSPropertyOp47
 70
     1
102
RTVSPropertyOp48
 70
     1
102
RTVSPropertyOp49
 70
     1
102
RTVSPropertyOp50
 70
     1
102
RTVSPropertyOp51
 70
     0
102
RTVSPropertyOp52
 70
     0
102
RTVSPropertyOp53
 70
     1
102
RTVSPropertyOp54
 70
     1
102
RTVSPropertyOp55
 70
     1
102
RTVSPropertyOp56
 70
     1
102
RTVSPropertyOp57
 70
     1
102
RTVSPost2010Prop28
280
     0
102
RTVSPost2010PropOp28
 70
     1
102
RTVSPost2010Prop29
280
     1
102
RTVSPost2010PropOp29
 70
     1
102
RTVSPost2010Prop30
280
     1
102
RTVSPost2010PropOp30
 70
     1
102
RTVSPost2010Prop31
280
     0
102
RTVSPost2010PropOp31
 70
     1
102
RTVSPost2010Prop32
280
     0
102
RTVSPost2010PropOp32
 70
     1
102
RTVSPost2010Prop33
280
     0
102
RTVSPost2010PropOp33
 70
     1
102
RTVSPost2010Prop34
280
     0
102
RTVSPost2010PropOp34
 70
     1
102
RTVSPost2010Prop35
280
     0
102
RTVSPost2010PropOp35
 70
     1
102
RTVSPost2010Prop36
280
     0
102
RTVSPost2010PropOp36
 70
     1
102
RTVSPost2010Prop37
 90
       50
102
RTVSPost2010PropOp37
 70
     1
102
RTVSPost2010Prop38
140
0.0
102
RTVSPost2010PropOp38
 70
     1
102
RTVSPost2010Prop39
140
1.0
102
RTVSPost2010PropOp39
 70
     1
102
RTVSPost2010Prop40
 90
        0
102
RTVSPost2010PropOp40
 70
     1
102
RTVSPost2010Prop41ColorIndex
 90
       18
102
RTVSPost2010Prop41ColorRGB
 90
        0
102
RTVSPost2010PropOp41
 70
     1
102
RTVSPost2010Prop42
 90
       50
102
RTVSPost2010PropOp42
 70
     1
102
RTVSPost2010Prop43
 90
        3
102
RTVSPost2010PropOp43
 70
     1
102
RTVSPost2010Prop44ColorIndex
 90
        5
102
RTVSPost2010Prop44ColorRGB
 90
      255
102
RTVSPost2010PropOp44
 70
     1
102
RTVSPost2010Prop45
280
     0
102
RTVSPost2010PropOp45
 70
     1
102
RTVSPost2010Prop46
 90
       50
102
RTVSPost2010PropOp46
 70
     1
102
RTVSPost2010Prop47
 90
       50
102
RTVSPost2010PropOp47
 70
     1
102
RTVSPost2010Prop48
 90
       50
102
RTVSPost2010PropOp48
 70
     1
102
RTVSPost2010Prop49
280
     0
102
RTVSPost2010PropOp49
 70
     1
102
RTVSPost2010Prop50
 90
       50
102
RTVSPost2010PropOp50
 70
     1
102
RTVSPost2010Prop51ColorIndex
 90
      256
102
RTVSPost2010Prop51ColorRGB
 90
-16777216
102
RTVSPost2010PropOp51
 70
     0
102
RTVSPost2010Prop52
140
1.0
102
RTVSPost2010PropOp52
 70
     0
102
RTVSPost2010Prop53
 90
        2
102
RTVSPost2010PropOp53
 70
     1
102
RTVSPost2010Prop54
  1
strokes_ogs.tif
102
RTVSPost2010PropOp54
 70
     1
102
RTVSPost2010Prop55
280
     0
102
RTVSPost2010PropOp55
 70
     1
102
RTVSPost2010Prop56
140
1.0
102
RTVSPost2010PropOp56
 70
     1
102
RTVSPost2010Prop57
140
1.0
102
RTVSPost2010PropOp57
 70
     1
  0
XRECORD
  5
359
102
{ACAD_REACTORS
330
358
102
}
330
358
100
AcDbXrecord
280
     1
102
RTVSPropertyOp0
 70
     1
102
RTVSPropertyOp1
 70
     1
102
RTVSPropertyOp2
 70
     1
102
RTVSPropertyOp3
 70
     1
102
RTVSPropertyOp4
 70
     1
102
RTVSPropertyOp5
 70
     1
102
RTVSPropertyOp6
 70
     1
102
RTVSPropertyOp7
 70
     1
102
RTVSPropertyOp8
 70
     1
102
RTVSPropertyOp9
 70
     1
102
RTVSPropertyOp10
 70
     1
102
RTVSPropertyOp11
 70
     1
102
RTVSPropertyOp12
 70
     1
102
RTVSPropertyOp13
 70
     1
102
RTVSPropertyOp14
 70
     1
102
RTVSPropertyOp15
 70
     1
102
RTVSPropertyOp16
 70
     1
102
RTVSPropertyOp17
 70
     1
102
RTVSPropertyOp18
 70
     1
102
RTVSPropertyOp19
 70
     1
102
RTVSPropertyOp20
 70
     1
102
RTVSPropertyOp21
 70
     1
102
RTVSPropertyOp22
 70
     1
102
RTVSPropertyOp23
 70
     1
102
RTVSPropertyOp24
 70
     1
102
RTVSPropertyOp25
 70
     1
102
RTVSPropertyOp26
 70
     1
102
RTVSPropertyOp27
 70
     1
102
RTVSPropertyOp28
 70
     1
102
RTVSPropertyOp29
 70
     1
102
RTVSPropertyOp30
 70
     1
102
RTVSPropertyOp31
 70
     1
102
RTVSPropertyOp32
 70
     1
102
RTVSPropertyOp33
 70
     1
102
RTVSPropertyOp34
 70
     1
102
RTVSPropertyOp35
 70
     1
102
RTVSPropertyOp36
 70
     1
102
RTVSPropertyOp37
 70
     1
102
RTVSPropertyOp38
 70
     1
102
RTVSPropertyOp39
 70
     1
102
RTVSPropertyOp40
 70
     1
102
RTVSPropertyOp41
 70
     1
102
RTVSPropertyOp42
 70
     1
102
RTVSPropertyOp43
 70
     1
102
RTVSPropertyOp44
 70
     1
102
RTVSPropertyOp45
 70
     1
102
RTVSPropertyOp46
 70
     1
102
RTVSPropertyOp47
 70
     1
102
RTVSPropertyOp48
 70
     1
102
RTVSPropertyOp49
 70
     1
102
RTVSPropertyOp50
 70
     1
102
RTVSPropertyOp51
 70
     0
102
RTVSPropertyOp52
 70
     0
102
RTVSPropertyOp53
 70
     1
102
RTVSPropertyOp54
 70
     1
102
RTVSPropertyOp55
 70
     1
102
RTVSPropertyOp56
 70
     1
102
RTVSPropertyOp57
 70
     1
102
RTVSPost2010Prop28
280
     0
102
RTVSPost2010PropOp28
 70
     1
102
RTVSPost2010Prop29
280
     1
102
RTVSPost2010PropOp29
 70
     1
102
RTVSPost2010Prop30
280
     1
102
RTVSPost2010PropOp30
 70
     1
102
RTVSPost2010Prop31
280
     0
102
RTVSPost2010PropOp31
 70
     1
102
RTVSPost2010Prop32
280
     0
102
RTVSPost2010PropOp32
 70
     1
102
RTVSPost2010Prop33
280
     0
102
RTVSPost2010PropOp33
 70
     1
102
RTVSPost2010Prop34
280
     0
102
RTVSPost2010PropOp34
 70
     1
102
RTVSPost2010Prop35
280
     0
102
RTVSPost2010PropOp35
 70
     1
102
RTVSPost2010Prop36
280
     0
102
RTVSPost2010PropOp36
 70
     1
102
RTVSPost2010Prop37
 90
       50
102
RTVSPost2010PropOp37
 70
     1
102
RTVSPost2010Prop38
140
0.0
102
RTVSPost2010PropOp38
 70
     1
102
RTVSPost2010Prop39
140
1.0
102
RTVSPost2010PropOp39
 70
     1
102
RTVSPost2010Prop40
 90
        0
102
RTVSPost2010PropOp40
 70
     1
102
RTVSPost2010Prop41ColorIndex
 90
       18
102
RTVSPost2010Prop41ColorRGB
 90
        0
102
RTVSPost2010PropOp41
 70
     1
102
RTVSPost2010Prop42
 90
       50
102
RTVSPost2010PropOp42
 70
     1
102
RTVSPost2010Prop43
 90
        3
102
RTVSPost2010PropOp43
 70
     1
102
RTVSPost2010Prop44ColorIndex
 90
        5
102
RTVSPost2010Prop44ColorRGB
 90
      255
102
RTVSPost2010PropOp44
 70
     1
102
RTVSPost2010Prop45
280
     0
102
RTVSPost2010PropOp45
 70
     1
102
RTVSPost2010Prop46
 90
       50
102
RTVSPost2010PropOp46
 70
     1
102
RTVSPost2010Prop47
 90
       50
102
RTVSPost2010PropOp47
 70
     1
102
RTVSPost2010Prop48
 90
       50
102
RTVSPost2010PropOp48
 70
     1
102
RTVSPost2010Prop49
280
     0
102
RTVSPost2010PropOp49
 70
     1
102
RTVSPost2010Prop50
 90
       50
102
RTVSPost2010PropOp50
 70
     1
102
RTVSPost2010Prop51ColorIndex
 90
      256
102
RTVSPost2010Prop51ColorRGB
 90
-16777216
102
RTVSPost2010PropOp51
 70
     0
102
RTVSPost2010Prop52
140
1.0
102
RTVSPost2010PropOp52
 70
     0
102
RTVSPost2010Prop53
 90
        2
102
RTVSPost2010PropOp53
 70
     1
102
RTVSPost2010Prop54
  1
strokes_ogs.tif
102
RTVSPost2010PropOp54
 70
     1
102
RTVSPost2010Prop55
280
     0
102
RTVSPost2010PropOp55
 70
     1
102
RTVSPost2010Prop56
140
1.0
102
RTVSPost2010PropOp56
 70
     1
102
RTVSPost2010Prop57
140
1.0
102
RTVSPost2010PropOp57
 70
     1
  0
XRECORD
  5
357
102
{ACAD_REACTORS
330
356
102
}
330
356
100
AcDbXrecord
280
     1
102
RTVSPropertyOp0
 70
     1
102
RTVSPropertyOp1
 70
     1
102
RTVSPropertyOp2
 70
     1
102
RTVSPropertyOp3
 70
     1
102
RTVSPropertyOp4
 70
     1
102
RTVSPropertyOp5
 70
     1
102
RTVSPropertyOp6
 70
     1
102
RTVSPropertyOp7
 70
     1
102
RTVSPropertyOp8
 70
     1
102
RTVSPropertyOp9
 70
     1
102
RTVSPropertyOp10
 70
     1
102
RTVSPropertyOp11
 70
     1
102
RTVSPropertyOp12
 70
     1
102
RTVSPropertyOp13
 70
     1
102
RTVSPropertyOp14
 70
     1
102
RTVSPropertyOp15
 70
     1
102
RTVSPropertyOp16
 70
     1
102
RTVSPropertyOp17
 70
     1
102
RTVSPropertyOp18
 70
     1
102
RTVSPropertyOp19
 70
     1
102
RTVSPropertyOp20
 70
     1
102
RTVSPropertyOp21
 70
     1
102
RTVSPropertyOp22
 70
     1
102
RTVSPropertyOp23
 70
     1
102
RTVSPropertyOp24
 70
     1
102
RTVSPropertyOp25
 70
     1
102
RTVSPropertyOp26
 70
     1
102
RTVSPropertyOp27
 70
     1
102
RTVSPropertyOp28
 70
     1
102
RTVSPropertyOp29
 70
     1
102
RTVSPropertyOp30
 70
     1
102
RTVSPropertyOp31
 70
     1
102
RTVSPropertyOp32
 70
     1
102
RTVSPropertyOp33
 70
     1
102
RTVSPropertyOp34
 70
     1
102
RTVSPropertyOp35
 70
     1
102
RTVSPropertyOp36
 70
     1
102
RTVSPropertyOp37
 70
     1
102
RTVSPropertyOp38
 70
     1
102
RTVSPropertyOp39
 70
     1
102
RTVSPropertyOp40
 70
     1
102
RTVSPropertyOp41
 70
     1
102
RTVSPropertyOp42
 70
     1
102
RTVSPropertyOp43
 70
     1
102
RTVSPropertyOp44
 70
     1
102
RTVSPropertyOp45
 70
     1
102
RTVSPropertyOp46
 70
     1
102
RTVSPropertyOp47
 70
     1
102
RTVSPropertyOp48
 70
     1
102
RTVSPropertyOp49
 70
     1
102
RTVSPropertyOp50
 70
     1
102
RTVSPropertyOp51
 70
     0
102
RTVSPropertyOp52
 70
     0
102
RTVSPropertyOp53
 70
     1
102
RTVSPropertyOp54
 70
     1
102
RTVSPropertyOp55
 70
     1
102
RTVSPropertyOp56
 70
     1
102
RTVSPropertyOp57
 70
     1
102
RTVSPost2010Prop28
280
     0
102
RTVSPost2010PropOp28
 70
     1
102
RTVSPost2010Prop29
280
     1
102
RTVSPost2010PropOp29
 70
     1
102
RTVSPost2010Prop30
280
     1
102
RTVSPost2010PropOp30
 70
     1
102
RTVSPost2010Prop31
280
     0
102
RTVSPost2010PropOp31
 70
     1
102
RTVSPost2010Prop32
280
     0
102
RTVSPost2010PropOp32
 70
     1
102
RTVSPost2010Prop33
280
     0
102
RTVSPost2010PropOp33
 70
     1
102
RTVSPost2010Prop34
280
     0
102
RTVSPost2010PropOp34
 70
     1
102
RTVSPost2010Prop35
280
     0
102
RTVSPost2010PropOp35
 70
     1
102
RTVSPost2010Prop36
280
     0
102
RTVSPost2010PropOp36
 70
     1
102
RTVSPost2010Prop37
 90
       50
102
RTVSPost2010PropOp37
 70
     1
102
RTVSPost2010Prop38
140
0.0
102
RTVSPost2010PropOp38
 70
     1
102
RTVSPost2010Prop39
140
1.0
102
RTVSPost2010PropOp39
 70
     1
102
RTVSPost2010Prop40
 90
        0
102
RTVSPost2010PropOp40
 70
     1
102
RTVSPost2010Prop41ColorIndex
 90
       18
102
RTVSPost2010Prop41ColorRGB
 90
        0
102
RTVSPost2010PropOp41
 70
     1
102
RTVSPost2010Prop42
 90
       50
102
RTVSPost2010PropOp42
 70
     1
102
RTVSPost2010Prop43
 90
        3
102
RTVSPost2010PropOp43
 70
     1
102
RTVSPost2010Prop44ColorIndex
 90
        5
102
RTVSPost2010Prop44ColorRGB
 90
      255
102
RTVSPost2010PropOp44
 70
     1
102
RTVSPost2010Prop45
280
     0
102
RTVSPost2010PropOp45
 70
     1
102
RTVSPost2010Prop46
 90
       50
102
RTVSPost2010PropOp46
 70
     1
102
RTVSPost2010Prop47
 90
       50
102
RTVSPost2010PropOp47
 70
     1
102
RTVSPost2010Prop48
 90
       50
102
RTVSPost2010PropOp48
 70
     1
102
RTVSPost2010Prop49
280
     0
102
RTVSPost2010PropOp49
 70
     1
102
RTVSPost2010Prop50
 90
       50
102
RTVSPost2010PropOp50
 70
     1
102
RTVSPost2010Prop51ColorIndex
 90
      256
102
RTVSPost2010Prop51ColorRGB
 90
-16777216
102
RTVSPost2010PropOp51
 70
     0
102
RTVSPost2010Prop52
140
1.0
102
RTVSPost2010PropOp52
 70
     0
102
RTVSPost2010Prop53
 90
        2
102
RTVSPost2010PropOp53
 70
     1
102
RTVSPost2010Prop54
  1
strokes_ogs.tif
102
RTVSPost2010PropOp54
 70
     1
102
RTVSPost2010Prop55
280
     0
102
RTVSPost2010PropOp55
 70
     1
102
RTVSPost2010Prop56
140
1.0
102
RTVSPost2010PropOp56
 70
     1
102
RTVSPost2010Prop57
140
1.0
102
RTVSPost2010PropOp57
 70
     1
  0
XRECORD
  5
351
102
{ACAD_REACTORS
330
350
102
}
330
350
100
AcDbXrecord
280
     1
102
RTVSPropertyOp0
 70
     1
102
RTVSPropertyOp1
 70
     1
102
RTVSPropertyOp2
 70
     1
102
RTVSPropertyOp3
 70
     1
102
RTVSPropertyOp4
 70
     1
102
RTVSPropertyOp5
 70
     1
102
RTVSPropertyOp6
 70
     1
102
RTVSPropertyOp7
 70
     1
102
RTVSPropertyOp8
 70
     1
102
RTVSPropertyOp9
 70
     1
102
RTVSPropertyOp10
 70
     1
102
RTVSPropertyOp11
 70
     1
102
RTVSPropertyOp12
 70
     1
102
RTVSPropertyOp13
 70
     1
102
RTVSPropertyOp14
 70
     1
102
RTVSPropertyOp15
 70
     1
102
RTVSPropertyOp16
 70
     1
102
RTVSPropertyOp17
 70
     1
102
RTVSPropertyOp18
 70
     1
102
RTVSPropertyOp19
 70
     1
102
RTVSPropertyOp20
 70
     1
102
RTVSPropertyOp21
 70
     1
102
RTVSPropertyOp22
 70
     1
102
RTVSPropertyOp23
 70
     1
102
RTVSPropertyOp24
 70
     1
102
RTVSPropertyOp25
 70
     1
102
RTVSPropertyOp26
 70
     1
102
RTVSPropertyOp27
 70
     1
102
RTVSPropertyOp28
 70
     1
102
RTVSPropertyOp29
 70
     1
102
RTVSPropertyOp30
 70
     1
102
RTVSPropertyOp31
 70
     1
102
RTVSPropertyOp32
 70
     1
102
RTVSPropertyOp33
 70
     1
102
RTVSPropertyOp34
 70
     1
102
RTVSPropertyOp35
 70
     1
102
RTVSPropertyOp36
 70
     1
102
RTVSPropertyOp37
 70
     1
102
RTVSPropertyOp38
 70
     1
102
RTVSPropertyOp39
 70
     1
102
RTVSPropertyOp40
 70
     1
102
RTVSPropertyOp41
 70
     1
102
RTVSPropertyOp42
 70
     1
102
RTVSPropertyOp43
 70
     1
102
RTVSPropertyOp44
 70
     1
102
RTVSPropertyOp45
 70
     1
102
RTVSPropertyOp46
 70
     1
102
RTVSPropertyOp47
 70
     1
102
RTVSPropertyOp48
 70
     1
102
RTVSPropertyOp49
 70
     1
102
RTVSPropertyOp50
 70
     1
102
RTVSPropertyOp51
 70
     0
102
RTVSPropertyOp52
 70
     0
102
RTVSPropertyOp53
 70
     1
102
RTVSPropertyOp54
 70
     1
102
RTVSPropertyOp55
 70
     1
102
RTVSPropertyOp56
 70
     1
102
RTVSPropertyOp57
 70
     1
102
RTVSPost2010Prop28
280
     0
102
RTVSPost2010PropOp28
 70
     1
102
RTVSPost2010Prop29
280
     1
102
RTVSPost2010PropOp29
 70
     1
102
RTVSPost2010Prop30
280
     1
102
RTVSPost2010PropOp30
 70
     1
102
RTVSPost2010Prop31
280
     0
102
RTVSPost2010PropOp31
 70
     1
102
RTVSPost2010Prop32
280
     0
102
RTVSPost2010PropOp32
 70
     1
102
RTVSPost2010Prop33
280
     0
102
RTVSPost2010PropOp33
 70
     1
102
RTVSPost2010Prop34
280
     0
102
RTVSPost2010PropOp34
 70
     1
102
RTVSPost2010Prop35
280
     0
102
RTVSPost2010PropOp35
 70
     1
102
RTVSPost2010Prop36
280
     0
102
RTVSPost2010PropOp36
 70
     1
102
RTVSPost2010Prop37
 90
       50
102
RTVSPost2010PropOp37
 70
     1
102
RTVSPost2010Prop38
140
0.0
102
RTVSPost2010PropOp38
 70
     1
102
RTVSPost2010Prop39
140
1.0
102
RTVSPost2010PropOp39
 70
     1
102
RTVSPost2010Prop40
 90
        0
102
RTVSPost2010PropOp40
 70
     1
102
RTVSPost2010Prop41ColorIndex
 90
       18
102
RTVSPost2010Prop41ColorRGB
 90
        0
102
RTVSPost2010PropOp41
 70
     1
102
RTVSPost2010Prop42
 90
       50
102
RTVSPost2010PropOp42
 70
     1
102
RTVSPost2010Prop43
 90
        3
102
RTVSPost2010PropOp43
 70
     1
102
RTVSPost2010Prop44ColorIndex
 90
        5
102
RTVSPost2010Prop44ColorRGB
 90
      255
102
RTVSPost2010PropOp44
 70
     1
102
RTVSPost2010Prop45
280
     0
102
RTVSPost2010PropOp45
 70
     1
102
RTVSPost2010Prop46
 90
       50
102
RTVSPost2010PropOp46
 70
     1
102
RTVSPost2010Prop47
 90
       50
102
RTVSPost2010PropOp47
 70
     1
102
RTVSPost2010Prop48
 90
       50
102
RTVSPost2010PropOp48
 70
     1
102
RTVSPost2010Prop49
280
     0
102
RTVSPost2010PropOp49
 70
     1
102
RTVSPost2010Prop50
 90
       50
102
RTVSPost2010PropOp50
 70
     1
102
RTVSPost2010Prop51ColorIndex
 90
      256
102
RTVSPost2010Prop51ColorRGB
 90
-16777216
102
RTVSPost2010PropOp51
 70
     0
102
RTVSPost2010Prop52
140
1.0
102
RTVSPost2010PropOp52
 70
     0
102
RTVSPost2010Prop53
 90
        2
102
RTVSPost2010PropOp53
 70
     1
102
RTVSPost2010Prop54
  1
strokes_ogs.tif
102
RTVSPost2010PropOp54
 70
     1
102
RTVSPost2010Prop55
280
     0
102
RTVSPost2010PropOp55
 70
     1
102
RTVSPost2010Prop56
140
1.0
102
RTVSPost2010PropOp56
 70
     1
102
RTVSPost2010Prop57
140
1.0
102
RTVSPost2010PropOp57
 70
     1
  0
XRECORD
  5
353
102
{ACAD_REACTORS
330
352
102
}
330
352
100
AcDbXrecord
280
     1
102
RTVSPropertyOp0
 70
     1
102
RTVSPropertyOp1
 70
     1
102
RTVSPropertyOp2
 70
     1
102
RTVSPropertyOp3
 70
     1
102
RTVSPropertyOp4
 70
     1
102
RTVSPropertyOp5
 70
     1
102
RTVSPropertyOp6
 70
     1
102
RTVSPropertyOp7
 70
     1
102
RTVSPropertyOp8
 70
     1
102
RTVSPropertyOp9
 70
     1
102
RTVSPropertyOp10
 70
     1
102
RTVSPropertyOp11
 70
     1
102
RTVSPropertyOp12
 70
     1
102
RTVSPropertyOp13
 70
     1
102
RTVSPropertyOp14
 70
     1
102
RTVSPropertyOp15
 70
     1
102
RTVSPropertyOp16
 70
     1
102
RTVSPropertyOp17
 70
     1
102
RTVSPropertyOp18
 70
     1
102
RTVSPropertyOp19
 70
     1
102
RTVSPropertyOp20
 70
     1
102
RTVSPropertyOp21
 70
     1
102
RTVSPropertyOp22
 70
     1
102
RTVSPropertyOp23
 70
     1
102
RTVSPropertyOp24
 70
     1
102
RTVSPropertyOp25
 70
     1
102
RTVSPropertyOp26
 70
     1
102
RTVSPropertyOp27
 70
     1
102
RTVSPropertyOp28
 70
     1
102
RTVSPropertyOp29
 70
     1
102
RTVSPropertyOp30
 70
     1
102
RTVSPropertyOp31
 70
     1
102
RTVSPropertyOp32
 70
     1
102
RTVSPropertyOp33
 70
     1
102
RTVSPropertyOp34
 70
     1
102
RTVSPropertyOp35
 70
     1
102
RTVSPropertyOp36
 70
     1
102
RTVSPropertyOp37
 70
     1
102
RTVSPropertyOp38
 70
     1
102
RTVSPropertyOp39
 70
     1
102
RTVSPropertyOp40
 70
     1
102
RTVSPropertyOp41
 70
     1
102
RTVSPropertyOp42
 70
     1
102
RTVSPropertyOp43
 70
     1
102
RTVSPropertyOp44
 70
     1
102
RTVSPropertyOp45
 70
     1
102
RTVSPropertyOp46
 70
     1
102
RTVSPropertyOp47
 70
     1
102
RTVSPropertyOp48
 70
     1
102
RTVSPropertyOp49
 70
     1
102
RTVSPropertyOp50
 70
     1
102
RTVSPropertyOp51
 70
     0
102
RTVSPropertyOp52
 70
     0
102
RTVSPropertyOp53
 70
     1
102
RTVSPropertyOp54
 70
     1
102
RTVSPropertyOp55
 70
     1
102
RTVSPropertyOp56
 70
     1
102
RTVSPropertyOp57
 70
     1
102
RTVSPost2010Prop28
280
     0
102
RTVSPost2010PropOp28
 70
     1
102
RTVSPost2010Prop29
280
     1
102
RTVSPost2010PropOp29
 70
     1
102
RTVSPost2010Prop30
280
     1
102
RTVSPost2010PropOp30
 70
     1
102
RTVSPost2010Prop31
280
     0
102
RTVSPost2010PropOp31
 70
     1
102
RTVSPost2010Prop32
280
     0
102
RTVSPost2010PropOp32
 70
     1
102
RTVSPost2010Prop33
280
     0
102
RTVSPost2010PropOp33
 70
     1
102
RTVSPost2010Prop34
280
     0
102
RTVSPost2010PropOp34
 70
     1
102
RTVSPost2010Prop35
280
     0
102
RTVSPost2010PropOp35
 70
     1
102
RTVSPost2010Prop36
280
     0
102
RTVSPost2010PropOp36
 70
     1
102
RTVSPost2010Prop37
 90
       50
102
RTVSPost2010PropOp37
 70
     1
102
RTVSPost2010Prop38
140
0.0
102
RTVSPost2010PropOp38
 70
     1
102
RTVSPost2010Prop39
140
1.0
102
RTVSPost2010PropOp39
 70
     1
102
RTVSPost2010Prop40
 90
        0
102
RTVSPost2010PropOp40
 70
     1
102
RTVSPost2010Prop41ColorIndex
 90
       18
102
RTVSPost2010Prop41ColorRGB
 90
        0
102
RTVSPost2010PropOp41
 70
     1
102
RTVSPost2010Prop42
 90
       50
102
RTVSPost2010PropOp42
 70
     1
102
RTVSPost2010Prop43
 90
        3
102
RTVSPost2010PropOp43
 70
     1
102
RTVSPost2010Prop44ColorIndex
 90
        5
102
RTVSPost2010Prop44ColorRGB
 90
      255
102
RTVSPost2010PropOp44
 70
     1
102
RTVSPost2010Prop45
280
     0
102
RTVSPost2010PropOp45
 70
     1
102
RTVSPost2010Prop46
 90
       50
102
RTVSPost2010PropOp46
 70
     1
102
RTVSPost2010Prop47
 90
       50
102
RTVSPost2010PropOp47
 70
     1
102
RTVSPost2010Prop48
 90
       50
102
RTVSPost2010PropOp48
 70
     1
102
RTVSPost2010Prop49
280
     0
102
RTVSPost2010PropOp49
 70
     1
102
RTVSPost2010Prop50
 90
       50
102
RTVSPost2010PropOp50
 70
     1
102
RTVSPost2010Prop51ColorIndex
 90
      256
102
RTVSPost2010Prop51ColorRGB
 90
-16777216
102
RTVSPost2010PropOp51
 70
     0
102
RTVSPost2010Prop52
140
1.0
102
RTVSPost2010PropOp52
 70
     0
102
RTVSPost2010Prop53
 90
        2
102
RTVSPost2010PropOp53
 70
     1
102
RTVSPost2010Prop54
  1
strokes_ogs.tif
102
RTVSPost2010PropOp54
 70
     1
102
RTVSPost2010Prop55
280
     0
102
RTVSPost2010PropOp55
 70
     1
102
RTVSPost2010Prop56
140
1.0
102
RTVSPost2010PropOp56
 70
     1
102
RTVSPost2010Prop57
140
1.0
102
RTVSPost2010PropOp57
 70
     1
  0
XRECORD
  5
343
102
{ACAD_REACTORS
330
342
102
}
330
342
100
AcDbXrecord
280
     1
102
RTVSPropertyOp0
 70
     1
102
RTVSPropertyOp1
 70
     1
102
RTVSPropertyOp2
 70
     1
102
RTVSPropertyOp3
 70
     1
102
RTVSPropertyOp4
 70
     1
102
RTVSPropertyOp5
 70
     1
102
RTVSPropertyOp6
 70
     1
102
RTVSPropertyOp7
 70
     1
102
RTVSPropertyOp8
 70
     1
102
RTVSPropertyOp9
 70
     1
102
RTVSPropertyOp10
 70
     1
102
RTVSPropertyOp11
 70
     1
102
RTVSPropertyOp12
 70
     1
102
RTVSPropertyOp13
 70
     1
102
RTVSPropertyOp14
 70
     1
102
RTVSPropertyOp15
 70
     1
102
RTVSPropertyOp16
 70
     1
102
RTVSPropertyOp17
 70
     1
102
RTVSPropertyOp18
 70
     1
102
RTVSPropertyOp19
 70
     1
102
RTVSPropertyOp20
 70
     1
102
RTVSPropertyOp21
 70
     1
102
RTVSPropertyOp22
 70
     1
102
RTVSPropertyOp23
 70
     1
102
RTVSPropertyOp24
 70
     1
102
RTVSPropertyOp25
 70
     1
102
RTVSPropertyOp26
 70
     1
102
RTVSPropertyOp27
 70
     1
102
RTVSPropertyOp28
 70
     1
102
RTVSPropertyOp29
 70
     1
102
RTVSPropertyOp30
 70
     1
102
RTVSPropertyOp31
 70
     1
102
RTVSPropertyOp32
 70
     1
102
RTVSPropertyOp33
 70
     1
102
RTVSPropertyOp34
 70
     1
102
RTVSPropertyOp35
 70
     1
102
RTVSPropertyOp36
 70
     1
102
RTVSPropertyOp37
 70
     1
102
RTVSPropertyOp38
 70
     1
102
RTVSPropertyOp39
 70
     1
102
RTVSPropertyOp40
 70
     1
102
RTVSPropertyOp41
 70
     1
102
RTVSPropertyOp42
 70
     1
102
RTVSPropertyOp43
 70
     1
102
RTVSPropertyOp44
 70
     1
102
RTVSPropertyOp45
 70
     1
102
RTVSPropertyOp46
 70
     1
102
RTVSPropertyOp47
 70
     1
102
RTVSPropertyOp48
 70
     1
102
RTVSPropertyOp49
 70
     1
102
RTVSPropertyOp50
 70
     1
102
RTVSPropertyOp51
 70
     0
102
RTVSPropertyOp52
 70
     0
102
RTVSPropertyOp53
 70
     1
102
RTVSPropertyOp54
 70
     1
102
RTVSPropertyOp55
 70
     1
102
RTVSPropertyOp56
 70
     1
102
RTVSPropertyOp57
 70
     1
102
RTVSPost2010Prop28
280
     0
102
RTVSPost2010PropOp28
 70
     1
102
RTVSPost2010Prop29
280
     1
102
RTVSPost2010PropOp29
 70
     1
102
RTVSPost2010Prop30
280
     1
102
RTVSPost2010PropOp30
 70
     1
102
RTVSPost2010Prop31
280
     0
102
RTVSPost2010PropOp31
 70
     1
102
RTVSPost2010Prop32
280
     0
102
RTVSPost2010PropOp32
 70
     1
102
RTVSPost2010Prop33
280
     0
102
RTVSPost2010PropOp33
 70
     1
102
RTVSPost2010Prop34
280
     0
102
RTVSPost2010PropOp34
 70
     1
102
RTVSPost2010Prop35
280
     0
102
RTVSPost2010PropOp35
 70
     1
102
RTVSPost2010Prop36
280
     0
102
RTVSPost2010PropOp36
 70
     1
102
RTVSPost2010Prop37
 90
       50
102
RTVSPost2010PropOp37
 70
     1
102
RTVSPost2010Prop38
140
0.0
102
RTVSPost2010PropOp38
 70
     1
102
RTVSPost2010Prop39
140
1.0
102
RTVSPost2010PropOp39
 70
     1
102
RTVSPost2010Prop40
 90
        0
102
RTVSPost2010PropOp40
 70
     1
102
RTVSPost2010Prop41ColorIndex
 90
       18
102
RTVSPost2010Prop41ColorRGB
 90
        0
102
RTVSPost2010PropOp41
 70
     1
102
RTVSPost2010Prop42
 90
       50
102
RTVSPost2010PropOp42
 70
     1
102
RTVSPost2010Prop43
 90
        3
102
RTVSPost2010PropOp43
 70
     1
102
RTVSPost2010Prop44ColorIndex
 90
        5
102
RTVSPost2010Prop44ColorRGB
 90
      255
102
RTVSPost2010PropOp44
 70
     1
102
RTVSPost2010Prop45
280
     0
102
RTVSPost2010PropOp45
 70
     1
102
RTVSPost2010Prop46
 90
       50
102
RTVSPost2010PropOp46
 70
     1
102
RTVSPost2010Prop47
 90
       50
102
RTVSPost2010PropOp47
 70
     1
102
RTVSPost2010Prop48
 90
       50
102
RTVSPost2010PropOp48
 70
     1
102
RTVSPost2010Prop49
280
     0
102
RTVSPost2010PropOp49
 70
     1
102
RTVSPost2010Prop50
 90
       50
102
RTVSPost2010PropOp50
 70
     1
102
RTVSPost2010Prop51ColorIndex
 90
      256
102
RTVSPost2010Prop51ColorRGB
 90
-16777216
102
RTVSPost2010PropOp51
 70
     0
102
RTVSPost2010Prop52
140
1.0
102
RTVSPost2010PropOp52
 70
     0
102
RTVSPost2010Prop53
 90
        2
102
RTVSPost2010PropOp53
 70
     1
102
RTVSPost2010Prop54
  1
strokes_ogs.tif
102
RTVSPost2010PropOp54
 70
     1
102
RTVSPost2010Prop55
280
     0
102
RTVSPost2010PropOp55
 70
     1
102
RTVSPost2010Prop56
140
1.0
102
RTVSPost2010PropOp56
 70
     1
102
RTVSPost2010Prop57
140
1.0
102
RTVSPost2010PropOp57
 70
     1
  0
XRECORD
  5
335
102
{ACAD_REACTORS
330
334
102
}
330
334
100
AcDbXrecord
280
     1
102
RTVSPropertyOp0
 70
     1
102
RTVSPropertyOp1
 70
     1
102
RTVSPropertyOp2
 70
     1
102
RTVSPropertyOp3
 70
     1
102
RTVSPropertyOp4
 70
     1
102
RTVSPropertyOp5
 70
     1
102
RTVSPropertyOp6
 70
     1
102
RTVSPropertyOp7
 70
     1
102
RTVSPropertyOp8
 70
     1
102
RTVSPropertyOp9
 70
     1
102
RTVSPropertyOp10
 70
     1
102
RTVSPropertyOp11
 70
     1
102
RTVSPropertyOp12
 70
     1
102
RTVSPropertyOp13
 70
     1
102
RTVSPropertyOp14
 70
     1
102
RTVSPropertyOp15
 70
     1
102
RTVSPropertyOp16
 70
     1
102
RTVSPropertyOp17
 70
     1
102
RTVSPropertyOp18
 70
     1
102
RTVSPropertyOp19
 70
     1
102
RTVSPropertyOp20
 70
     1
102
RTVSPropertyOp21
 70
     1
102
RTVSPropertyOp22
 70
     1
102
RTVSPropertyOp23
 70
     1
102
RTVSPropertyOp24
 70
     1
102
RTVSPropertyOp25
 70
     1
102
RTVSPropertyOp26
 70
     1
102
RTVSPropertyOp27
 70
     1
102
RTVSPropertyOp28
 70
     1
102
RTVSPropertyOp29
 70
     1
102
RTVSPropertyOp30
 70
     1
102
RTVSPropertyOp31
 70
     1
102
RTVSPropertyOp32
 70
     1
102
RTVSPropertyOp33
 70
     1
102
RTVSPropertyOp34
 70
     1
102
RTVSPropertyOp35
 70
     1
102
RTVSPropertyOp36
 70
     1
102
RTVSPropertyOp37
 70
     1
102
RTVSPropertyOp38
 70
     1
102
RTVSPropertyOp39
 70
     1
102
RTVSPropertyOp40
 70
     1
102
RTVSPropertyOp41
 70
     1
102
RTVSPropertyOp42
 70
     1
102
RTVSPropertyOp43
 70
     1
102
RTVSPropertyOp44
 70
     1
102
RTVSPropertyOp45
 70
     1
102
RTVSPropertyOp46
 70
     1
102
RTVSPropertyOp47
 70
     1
102
RTVSPropertyOp48
 70
     1
102
RTVSPropertyOp49
 70
     1
102
RTVSPropertyOp50
 70
     1
102
RTVSPropertyOp51
 70
     0
102
RTVSPropertyOp52
 70
     0
102
RTVSPropertyOp53
 70
     1
102
RTVSPropertyOp54
 70
     1
102
RTVSPropertyOp55
 70
     1
102
RTVSPropertyOp56
 70
     1
102
RTVSPropertyOp57
 70
     1
102
RTVSPost2010Prop28
280
     0
102
RTVSPost2010PropOp28
 70
     1
102
RTVSPost2010Prop29
280
     1
102
RTVSPost2010PropOp29
 70
     1
102
RTVSPost2010Prop30
280
     1
102
RTVSPost2010PropOp30
 70
     1
102
RTVSPost2010Prop31
280
     0
102
RTVSPost2010PropOp31
 70
     1
102
RTVSPost2010Prop32
280
     0
102
RTVSPost2010PropOp32
 70
     1
102
RTVSPost2010Prop33
280
     0
102
RTVSPost2010PropOp33
 70
     1
102
RTVSPost2010Prop34
280
     0
102
RTVSPost2010PropOp34
 70
     1
102
RTVSPost2010Prop35
280
     0
102
RTVSPost2010PropOp35
 70
     1
102
RTVSPost2010Prop36
280
     0
102
RTVSPost2010PropOp36
 70
     1
102
RTVSPost2010Prop37
 90
       50
102
RTVSPost2010PropOp37
 70
     1
102
RTVSPost2010Prop38
140
0.0
102
RTVSPost2010PropOp38
 70
     1
102
RTVSPost2010Prop39
140
1.0
102
RTVSPost2010PropOp39
 70
     1
102
RTVSPost2010Prop40
 90
        0
102
RTVSPost2010PropOp40
 70
     1
102
RTVSPost2010Prop41ColorIndex
 90
       18
102
RTVSPost2010Prop41ColorRGB
 90
        0
102
RTVSPost2010PropOp41
 70
     1
102
RTVSPost2010Prop42
 90
       50
102
RTVSPost2010PropOp42
 70
     1
102
RTVSPost2010Prop43
 90
        3
102
RTVSPost2010PropOp43
 70
     1
102
RTVSPost2010Prop44ColorIndex
 90
        5
102
RTVSPost2010Prop44ColorRGB
 90
      255
102
RTVSPost2010PropOp44
 70
     1
102
RTVSPost2010Prop45
280
     0
102
RTVSPost2010PropOp45
 70
     1
102
RTVSPost2010Prop46
 90
       50
102
RTVSPost2010PropOp46
 70
     1
102
RTVSPost2010Prop47
 90
       50
102
RTVSPost2010PropOp47
 70
     1
102
RTVSPost2010Prop48
 90
       50
102
RTVSPost2010PropOp48
 70
     1
102
RTVSPost2010Prop49
280
     0
102
RTVSPost2010PropOp49
 70
     1
102
RTVSPost2010Prop50
 90
       50
102
RTVSPost2010PropOp50
 70
     1
102
RTVSPost2010Prop51ColorIndex
 90
      256
102
RTVSPost2010Prop51ColorRGB
 90
-16777216
102
RTVSPost2010PropOp51
 70
     0
102
RTVSPost2010Prop52
140
1.0
102
RTVSPost2010PropOp52
 70
     0
102
RTVSPost2010Prop53
 90
        2
102
RTVSPost2010PropOp53
 70
     1
102
RTVSPost2010Prop54
  1
strokes_ogs.tif
102
RTVSPost2010PropOp54
 70
     1
102
RTVSPost2010Prop55
280
     0
102
RTVSPost2010PropOp55
 70
     1
102
RTVSPost2010Prop56
140
1.0
102
RTVSPost2010PropOp56
 70
     1
102
RTVSPost2010Prop57
140
1.0
102
RTVSPost2010PropOp57
 70
     1
  0
XRECORD
  5
355
102
{ACAD_REACTORS
330
354
102
}
330
354
100
AcDbXrecord
280
     1
102
RTVSPropertyOp0
 70
     1
102
RTVSPropertyOp1
 70
     1
102
RTVSPropertyOp2
 70
     1
102
RTVSPropertyOp3
 70
     1
102
RTVSPropertyOp4
 70
     1
102
RTVSPropertyOp5
 70
     1
102
RTVSPropertyOp6
 70
     1
102
RTVSPropertyOp7
 70
     1
102
RTVSPropertyOp8
 70
     1
102
RTVSPropertyOp9
 70
     1
102
RTVSPropertyOp10
 70
     1
102
RTVSPropertyOp11
 70
     1
102
RTVSPropertyOp12
 70
     1
102
RTVSPropertyOp13
 70
     1
102
RTVSPropertyOp14
 70
     1
102
RTVSPropertyOp15
 70
     1
102
RTVSPropertyOp16
 70
     1
102
RTVSPropertyOp17
 70
     1
102
RTVSPropertyOp18
 70
     1
102
RTVSPropertyOp19
 70
     1
102
RTVSPropertyOp20
 70
     1
102
RTVSPropertyOp21
 70
     1
102
RTVSPropertyOp22
 70
     1
102
RTVSPropertyOp23
 70
     1
102
RTVSPropertyOp24
 70
     1
102
RTVSPropertyOp25
 70
     1
102
RTVSPropertyOp26
 70
     1
102
RTVSPropertyOp27
 70
     1
102
RTVSPropertyOp28
 70
     1
102
RTVSPropertyOp29
 70
     1
102
RTVSPropertyOp30
 70
     1
102
RTVSPropertyOp31
 70
     1
102
RTVSPropertyOp32
 70
     1
102
RTVSPropertyOp33
 70
     1
102
RTVSPropertyOp34
 70
     1
102
RTVSPropertyOp35
 70
     1
102
RTVSPropertyOp36
 70
     1
102
RTVSPropertyOp37
 70
     1
102
RTVSPropertyOp38
 70
     1
102
RTVSPropertyOp39
 70
     1
102
RTVSPropertyOp40
 70
     1
102
RTVSPropertyOp41
 70
     1
102
RTVSPropertyOp42
 70
     1
102
RTVSPropertyOp43
 70
     1
102
RTVSPropertyOp44
 70
     1
102
RTVSPropertyOp45
 70
     1
102
RTVSPropertyOp46
 70
     1
102
RTVSPropertyOp47
 70
     1
102
RTVSPropertyOp48
 70
     1
102
RTVSPropertyOp49
 70
     1
102
RTVSPropertyOp50
 70
     1
102
RTVSPropertyOp51
 70
     0
102
RTVSPropertyOp52
 70
     0
102
RTVSPropertyOp53
 70
     1
102
RTVSPropertyOp54
 70
     1
102
RTVSPropertyOp55
 70
     1
102
RTVSPropertyOp56
 70
     1
102
RTVSPropertyOp57
 70
     1
102
RTVSPost2010Prop28
280
     0
102
RTVSPost2010PropOp28
 70
     1
102
RTVSPost2010Prop29
280
     1
102
RTVSPost2010PropOp29
 70
     1
102
RTVSPost2010Prop30
280
     1
102
RTVSPost2010PropOp30
 70
     1
102
RTVSPost2010Prop31
280
     0
102
RTVSPost2010PropOp31
 70
     1
102
RTVSPost2010Prop32
280
     0
102
RTVSPost2010PropOp32
 70
     1
102
RTVSPost2010Prop33
280
     0
102
RTVSPost2010PropOp33
 70
     1
102
RTVSPost2010Prop34
280
     0
102
RTVSPost2010PropOp34
 70
     1
102
RTVSPost2010Prop35
280
     0
102
RTVSPost2010PropOp35
 70
     1
102
RTVSPost2010Prop36
280
     0
102
RTVSPost2010PropOp36
 70
     1
102
RTVSPost2010Prop37
 90
       50
102
RTVSPost2010PropOp37
 70
     1
102
RTVSPost2010Prop38
140
0.0
102
RTVSPost2010PropOp38
 70
     1
102
RTVSPost2010Prop39
140
1.0
102
RTVSPost2010PropOp39
 70
     1
102
RTVSPost2010Prop40
 90
        0
102
RTVSPost2010PropOp40
 70
     1
102
RTVSPost2010Prop41ColorIndex
 90
       18
102
RTVSPost2010Prop41ColorRGB
 90
        0
102
RTVSPost2010PropOp41
 70
     1
102
RTVSPost2010Prop42
 90
       50
102
RTVSPost2010PropOp42
 70
     1
102
RTVSPost2010Prop43
 90
        3
102
RTVSPost2010PropOp43
 70
     1
102
RTVSPost2010Prop44ColorIndex
 90
        5
102
RTVSPost2010Prop44ColorRGB
 90
      255
102
RTVSPost2010PropOp44
 70
     1
102
RTVSPost2010Prop45
280
     0
102
RTVSPost2010PropOp45
 70
     1
102
RTVSPost2010Prop46
 90
       50
102
RTVSPost2010PropOp46
 70
     1
102
RTVSPost2010Prop47
 90
       50
102
RTVSPost2010PropOp47
 70
     1
102
RTVSPost2010Prop48
 90
       50
102
RTVSPost2010PropOp48
 70
     1
102
RTVSPost2010Prop49
280
     0
102
RTVSPost2010PropOp49
 70
     1
102
RTVSPost2010Prop50
 90
       50
102
RTVSPost2010PropOp50
 70
     1
102
RTVSPost2010Prop51ColorIndex
 90
      256
102
RTVSPost2010Prop51ColorRGB
 90
-16777216
102
RTVSPost2010PropOp51
 70
     0
102
RTVSPost2010Prop52
140
1.0
102
RTVSPost2010PropOp52
 70
     0
102
RTVSPost2010Prop53
 90
        2
102
RTVSPost2010PropOp53
 70
     1
102
RTVSPost2010Prop54
  1
strokes_ogs.tif
102
RTVSPost2010PropOp54
 70
     1
102
RTVSPost2010Prop55
280
     0
102
RTVSPost2010PropOp55
 70
     1
102
RTVSPost2010Prop56
140
1.0
102
RTVSPost2010PropOp56
 70
     1
102
RTVSPost2010Prop57
140
1.0
102
RTVSPost2010PropOp57
 70
     1
  0
ENDSEC
  0
EOF
